Clockout

Devo

Acordes

Duty Now for the Future (1979)
Subida por Luciano



Cambiar Cifrado
Americano Latino

Cambiar Tonalidad
-1 +1

Partir Pantalla Imprimir FAQ

+A
-A


Ver solo la LETRA

From: * (Ronald Cole)
(also on "Greatest Misses", I believe)

All right, clockout!

|-------------------------|-------------------------|-------------------------|
|-10----10-10-12-12-10-10-|-12-10-12-10----10-12-10-|-12-12-10-12-12-12-10-10-|
|-10----10-10-12-12-10-10-|-12-10-12-10----10-12-10-|-12-12-10-12-12-12-10-10-|
|-10----10-10-12-12-10-10-|-12-10-12-10----10-12-10-|-12-12-10-12-12-12-10-10-|
|-------------------------|-------------------------|-------------------------|
|-------------------------|-------------------------|-------------------------|

|-------------------------|-------------------------|-------------------------|
|-10-10-12-10----10-12-10-|-12-12-10-12-12-12-10-10-|-10-10-12-10-------------|
|-10-10-12-10----10-12-10-|-12-12-10-12-12-12-10-10-|-10-10-12-10-------------|
|-10-10-12-10----10-12-10-|-12-12-10-12-12-12-10-10-|-10-10-12-10-------------|
|-------------------------|-------------------------|-------------------------|
|-------------------------|-------------------------|-------------------------|
I got my

|-------------------------|-------------------------|-------------------------|
|-----------3-------------|--------5--3-------------|-------------------------|
|-----------3-------------|--------5--3-------------|-------------------------|
|--3--4--5--3-------------|--3--5--5--3-----3--5--3-|-------------------------|
|--3--4--5----------------|--3--5-------------------|-----2--2--2--2--2--2--2-|
|-------------------------|-------------------------|-------------------------|
coat I got my keys I got my head down to my

|-------------------------|-------------------------|-------------------------|
|-----------3-------------|--------5--3-------------|-----------3-------------|
|-----------3-------------|--------5--3-------------|-----------3-----3-------|
|--3--4--5--3-------------|--3--5--5--3-------------|--3--4--5--3--------5----|
|--3--4--5----------------|--3--5-------------------|--3--4--5----------------|
|-------------------------|-------------------------|-------------------------|
lungs and move my feet.

|-------------------------|-------------------------|-------------------------|
|-------------------------|-----------3-------------|--------5--3-------------|
|-------------------------|-----------3-------------|--------5--3-------------|
|-------------------------|--3--4--5--3-------------|--3--5--5--3-------------|
|-----2--2--2--2--2--2--2-|--3--4--5----------------|--3--5-------------------|
|-------------------------|-------------------------|-------------------------|
Me, I got all the secretaries

|-------------------------|-------------------------|-------------------------|
|-----------3-------------|-------------------------|-------------------------|
|-----------3-----3-------|-------------------------|-------------------------|
|--3--4--5--3--------5----|--------------3----------|--------5--5-------------|
|--3--4--5----------------|--3--3--3--3-------------|--------------4--4-------|
|-------------------------|-------------------------|--3--3-------------------|
down on their knees. Look at 'em scoot

They gonna clockout.

[repeat above. verse:]

I got my money tied up in stock.
I got my mammy take my doggie for a walk.
Me, I got the biggest little business
Down on the block.

Get ready, get set, 'cause we gonna clockout.

[solo]
|-------------------------|-------------------------|-------------------------|
|-------------------------|-------------------------|-------------------------|
|-5/7---5/7---5/7---5/7---|-5/75--3-----------3--5-|-5/7-7-5/7-7-5/7-7-5/7-7-|
|-------------------------|-----------5-----5-------|-------------------------|
|-------------------------|-------------------------|-------------------------|
|-------------------------|-------------------------|-------------------------|

|-------------------------|-------------------------|-------------------------|
|-------------------------|-------------------------|-------------------------|
|-5/75--3-----------3--5-|-5/7-7-5/7-7-5/7-7-5/7-7-|-5/75--3-----------3--5-|
|-----------5-----5-------|-------------------------|-----------5-----5-------|
|-------------------------|-------------------------|-------------------------|
|-------------------------|-------------------------|-------------------------|

|-------------------------|-----------3-----3-------|-------------------------|
|-------------------------|-----------3-----3--6--3-|-----0--0-----0-----0--0-|
|-5/75--3-----------3--5-|-5/75--3----------------|-------------------------|
|-----------5-----5-------|-------------------------|-------------------------|
|-------------------------|-------------------------|-------------------------|
|-------------------------|-------------------------|-------------------------|

|-------------------------|-------------------------|-----------3-----3-------|
|-------------------------|-5/75-------------------|-5/75-----3-----3--6--3-|
|-5/75--3-----------3--5-|-5/75--3-----------3--5-|-5/75--3----------------|
|-----------5-----5-------|-----------5-----5-------|-------------------------|
|-------------------------|-------------------------|-------------------------|
|-------------------------|-------------------------|-------------------------|

|-------------------------|-------------------------|-------------------------|
|-----0--0-----0-----0--0-|--5--5--5--7--------7----|-10-10-10-12----12-10----|
|-------------------------|--5--5--5--7--------7----|-10-10-10-12----12-10----|
|-------------------------|--5--5--5--7--------7----|-10-10-10-12----12-10-12-|
|-------------------------|-------------------------|----------------------12-|
|-------------------------|-------------------------|-------------------------|

|-------------------------|-------------------------|-------------------------|
|-10----10-12----12-12-12-|-12-12-12-12-12----------|-------------------------|
|-10----10-12----12-12-12-|-12-12-12-12-12----------|-------------------------|
|-10-12-10-12----12-12-12-|-12-12-12-12-12----------|--------5--5-------------|
|----12-------------------|-------------------------|--------------4--4-------|
|-------------------------|-------------------------|--3--3-------------------|
Down on all fours...

'Cause we gonna, we gonna, we gonna, we gonna clockout.

[repeat verse...]
Take my advice. Hear my decree.
I'm afraid the future's gonna be maintenance free.
I got the big brush for your bowl.
Baby, can't you dig my plea?

Gonna gag, unless we clockout.

No, no, no.

NUEVO FORO DE MÚSICA

¿Tienes alguna duda, consulta, pregunta, consejo o algo para compartir sobre esta canción?

¡Puedes abrir un hilo en el FORO para que la comunidad te ayude! Hacer una pregunta

ACORDES PARA GUITARRA

PIANO UKELELE


Las más tocadas de Devo