Smart Patrol Mr Dna

Devo

Acordes

Duty Now for the Future (1979)
Subida por tam5



Cambiar Cifrado
Americano Latino

Cambiar Tonalidad
-1 +1

Partir Pantalla Imprimir FAQ

+A
-A


Ver solo la LETRA

B | | | F | A | B | | | F | A | B | F | G B | F | G B | F | G B | F | G
E|-7-------1---5---7-------1---5---7---8---3-----------7---8---3-----------7---8---3-----------7---8---3-------------|
B|-7-------1---5---7-------1---5---7---10--3-----------7---10--3-----------7---10--3-----------7---10--3-------------|
G|-8-------2---6---8-------2---6---8---10--4-----------8---10--4-----------8---10--4-----------8---10--4-------------|
D|-9-------3---7---9-------3---7---9---10--5-----------9---10--5-----------9---10--5-----------9---10--5-------------|
A|-9-------3---7---9-------3---7---9---8---5-----------9---8---5-----------9---8---5-----------9---8---5-------------|
E|-7-------1---5---7-------1---5---7-------3-3-3-3-2-5-7-------3-3-3-3-2-5-7-------3-3-3-3-2-5-7-------3-3-3-3-2-----|

D A C# A E | | | E A A# D C# A B | | |
E|-5--5--9---5--7------7--5--6--5--4--5--7--------------------------------------------------------------------------|
B|-7--5--9---5--9------9--5--6--7--5--5--7--------------------------------------------------------------------------|
G|-7--6--10--6--9------9--6--7--7--5--6--8--------------------------------------------------------------------------|
D|-7--7--11--7--9------9--7--8--7--5--7--9--------------------------------------------------------------------------|
A|-5--7--11--7--7------7--7--8--5--4--7--9--------------------------------------------------------------------------|
E|----5--9---5------------5--6--------5--7--------------------------------------------------------------------------|

F | A | B | | | F | A | B | F | G B | F | G B | F | G B | F | G
E|-1---5---7-------1---5---7---8---3-----------7---8---3-----------7---8---3-----------7---8---3---------------------|
B|-1---5---7-------1---5---7---10--3-----------7---10--3-----------7---10--3-----------7---10--3---------------------|
G|-2---6---8-------2---6---8---10--4-----------8---10--4-----------8---10--4-----------8---10--4---------------------|
D|-3---7---9-------3---7---9---10--5-----------9---10--5-----------9---10--5-----------9---10--5---------------------|
A|-3---7---9-------3---7---9---8---5-----------9---8---5-----------9---8---5-----------9---8---5---------------------|
E|-1---5---7-------1---5---7-------3-3-3-3-2-5-7-------3-3-3-3-2-5-7-------3-3-3-3-2-5-7-------3-3-3-3-2-------------|

D A C# A E | | | E A A# D C# A B | | |
E|-5--5--9---5--7------7--5--6--5--4--5--7--------------------------------------------------------------------------|
B|-7--5--9---5--9------9--5--6--7--5--5--7--------------------------------------------------------------------------|
G|-7--6--10--6--9------9--6--7--7--5--6--8--------------------------------------------------------------------------|
D|-7--7--11--7--9------9--7--8--7--5--7--9--------------------------------------------------------------------------|
A|-5--7--11--7--7------7--7--8--5--4--7--9--------------------------------------------------------------------------|
E|----5--9---5------------5--6--------5--7--------------------------------------------------------------------------|

F | A | B | | | F | A | B | F | G B | F | G B | F | G B | F | G
E|-1---5---7-------1---5---7---8---3-----------7---8---3-----------7---8---3-----------7---8---3---------------------|
B|-1---5---7-------1---5---7---10--3-----------7---10--3-----------7---10--3-----------7---10--3---------------------|
G|-2---6---8-------2---6---8---10--4-----------8---10--4-----------8---10--4-----------8---10--4---------------------|
D|-3---7---9-------3---7---9---10--5-----------9---10--5-----------9---10--5-----------9---10--5---------------------|
A|-3---7---9-------3---7---9---8---5-----------9---8---5-----------9---8---5-----------9---8---5---------------------|
E|-1---5---7-------1---5---7-------3-3-3-3-2-5-7-------3-3-3-3-2-5-7-------3-3-3-3-2-5-7-------3-3-3-3-2-------------|

D A C# A E | | | E A A# D C# A
E|-5--5--9---5--7------7--5--6--5--4--5-----------------------------------------------------------------------------|
B|-7--5--9---5--9------9--5--6--7--5--5-----------------------------------------------------------------------------|
G|-7--6--10--6--9------9--6--7--7--5--6-----------------------------------------------------------------------------|
D|-7--7--11--7--9------9--7--8--7--5--7-----------------------------------------------------------------------------|
A|-5--7--11--7--7------7--7--8--5--4--7-----------------------------------------------------------------------------|
E|----5--9---5------------5--6--------5-----------------------------------------------------------------------------|

E | C G D | A | E | | | D | A |
E|-7---3--3--5---5---7-------5---5-----------------------------------------------------------------------------------|
B|-9---5--3--7---5---9-------7---5-----------------------------------------------------------------------------------|
G|-9---5--4--7---6---9-------7---6-- repeat 6 times -------------------------------------------------------------|
D|-9---5--5--7---7---9-------7---7-----------------------------------------------------------------------------------|
A|-7---3--5--5---7---7-------5---7-----------------------------------------------------------------------------------|
E|--------3------5---------------5-----------------------------------------------------------------------------------|

E B C G D A E |
E|-7--7--3--3--5--5--7-----------------------------------------------------------------------------------------------|
B|-9--7--5--3--7--5--9-----------------------------------------------------------------------------------------------|
G|-9--8--5--4--7--6--9-------------- solo 12 times --------------------------------------------------------------|
D|-9--9--5--5--7--7--9-----------------------------------------------------------------------------------------------|
A|-7--9--3--5--5--7--7-----------------------------------------------------------------------------------------------|
E|----7-----3-----5--------------------------------------------------------------------------------------------------|

E | C G D | A |
E|-7---3--3--5---5---------------------------------------------------------------------------------------------------|
B|-9---5--3--7---5---------------------------------------------------------------------------------------------------|
G|-9---5--4--7---6------------------ repeat 4 times -------------------------------------------------------------|
D|-9---5--5--7---7---------------------------------------------------------------------------------------------------|
A|-7---3--5--5---7---------------------------------------------------------------------------------------------------|
E|--------3------5---------------------------------------------------------------------------------------------------|

E B C G E |
E|-7--7--3--3--7-----------------------------------------------------------------------------------------------------|
B|-9--7--5--3--9-----------------------------------------------------------------------------------------------------|
G|-9--8--5--4--9-------------------- end ------------------------------------------------------------------------|
D|-9--9--5--5--9-----------------------------------------------------------------------------------------------------|
A|-7--9--3--5--7-----------------------------------------------------------------------------------------------------|
E|----7-----3--------------------------------------------------------------------------------------------------------|

NUEVO FORO DE MÚSICA

¿Tienes alguna duda, consulta, pregunta, consejo o algo para compartir sobre esta canción?

¡Puedes abrir un hilo en el FORO para que la comunidad te ayude! Hacer una pregunta

ACORDES PARA GUITARRA

PIANO UKELELE


Las más tocadas de Devo