Brothers in Arms
Dire Straits
Acordes

Subida por Roberto
Álbum: Brothers in Arms ( 1985)


Más Versiones
Ver. 2 Ver. 3 Ver. 4 Ver. 5 Ver. 6
+A
-A
[Intro]

E|-----------|-------|----------------------|----------|--------------------|
B|-----------|-------|----------------------|---4------|--------------------|
G|-------3---|---3---|-3h4--6--4--3---------|-4---4h6--|--6v-6-4-3------4---|
D|-----6---6-|-6---6-|--------------6--4--6-|----------|----------6-4h6---6-|
A|--4/6------|-------|----------------------|----------|--------------------|
E|-----------|-------|----------------------|----------|--------------------|

E|--------|-------|---------|----------|-----|
B|--------|-------|---------|----------|-4---|
G|-3-4----|---3---|-6b--4h6-|-8p6--6h8-|---3-|
D|------6-|-6---6-|---------|----------|-----|
A|--------|-------|---------|----------|-----|
E|--------|-------|---------|----------|-----|

E|------------|-------------------------|-------------------------|-------|
B|---4h5--4---|-------------------------|-------------------------|---4---|
G|-4--------6-|-4p3h4--6--4--3----------|-6v--4-3--6--4--3--------|-4---6-|
D|------------|----------------6p4h6--6-|-----------------6--4--6-|-------|
A|------------|-------------------------|-------------------------|-------|
E|------------|-------------------------|-------------------------|-------|

E|------------|--------|-----------|-4p2--1--2---|---------------|-------------|
B|------------|-4v5v7v-|-7p6---6---|-----------4-|---------------|---4h5--4----|
G|-8h6--6-----|--------|-----8-----|-------------|-4v--6--4--3---|-4---------6-|
D|-6------6h8-|--------|---------8-|-------------|-------------6-|-------------|
A|------------|--------|-----------|-------------|---------------|-------------|
E|------------|--------|-----------|-------------|---------------|-------------|

E|-----------------------|----------------------|---------|---------------|
B|-4--7b--7--4-----------|----------------------|---4-----|-----------4---|
G|-------------6--4------|-3h4--6--4--3---------|-4---4h6-|-------3h4---6-|
D|------------------6--6-|--------------6--4--6-|---------|-----6---------|
A|-----------------------|----------------------|---------|-4h6-----------|
E|-----------------------|----------------------|---------|---------------|

E|-----------|--------------|-------------|-------|-------------------|
B|---------7-|--------------|-5p4-----4---|-------|-----4--7b--7p5--5-|
G|-4--6--8---|-3h4p3---4--6-|-----6p4---6-|-------|---4---------------|
D|-----------|-------6------|-------------|-------|-6-----------------|
A|-----------|--------------|-------------|-------|-------------------|
E|-----------|--------------|-------------|-------|-------------------|

E|-----------------|-4--6--4---------|---2---2---2h4-|-------------------|
B|-7b--7--4--4--7b-|---------7--5--5-|-4---4---4-----|-7--4--------------|
G|----------4------|-----------------|---------------|------6--4---------|
D|-----------------|-----------------|---------------|-----------6--4--6-|
A|-----------------|-----------------|---------------|-------------------|
E|-----------------|-----------------|---------------|-------------------|

E|----------------|---------|--------------|-----|--------|--------------|
B|----------------|---4-----|-4vvvvvvvvvvv-|-----|-4v5v7v-|-9b--9--7h9p7-|
G|-4--6--7b--6--4-|-4---4h6-|----6--4--3---|-----|--------|--------------|
D|----------------|---------|------------6-|-6h8-|--------|--------------|
A|----------------|---------|--------------|-6---|--------|--------------|
E|----------------|---------|--------------|-----|--------|--------------|

E|--------------------------|--4/6-4-2-4-6-|-2-6-4|-2-|-----------------|-----------------------|
B|-4---------4-6--4---------|--------------|------|---|-5--4---4h5--4---|-7b--7--4--------------|
G|-------4-6---------4--6---|--------------|------|---|------4--------6-|----------6--4---------|
D|-----6--------------------|--------------|------|---|-----------------|---------------6--4--6-|
A|--------------------------|--------------|------|---|-----------------|-----------------------|
E|--------------------------|--------------|------|---|-----------------|-----------------------|

E|---4-2h4-|-4--7-4--2-4-2h4-|-----------|----------------------|------|------------|
B|-4-------|-----------------|-7-5p4-----|-7--------------------|------|------------|
G|---------|-----------------|-------6-6-|-6b--6-4-6-6-4-6-4-4--|-4--6-|-6b-4--6b-4-|
D|---------|-----------------|-----------|----------------------|------|------------|
A|---------|-----------------|-----------|----------------------|------|------------|
E|---------|-----------------|-----------|----------------------|------|------------|

E|---------------------|-------------------------|-13b--9------------11-9~-|
B|---------------------|------9--12b------9--12b-|---------12-9---12-------|
G|------6b------6b-4---|-8-11----------11--------|-------------------------|
D|--XX------XX-------6-|-------------------------|-------------------------|
A|--XX------XX---------|-------------------------|-------------------------|
E|---------------------|-------------------------|-------------------------|

( G#m/D# G#m/B G#m G#m/B )
( G#m/D# G#m/B G#m )

F# E F#
These mist covered moun_tains
B Bsus4 B
Are a home now for me
B/A# G#m D#m
But my home is the low_lands
E F#sus4
And always will be

F# G#m D#m
Some day you'll return__ to
E C#m F#sus4
Your valleys and your farms
F# G#m E F#sus4
And you'll no longer burn to be bro_thers in arms

( F# G#m E C#m E )
( G#m E C#m G#m )

F# E F#
Through these fields of destruc_tion
B Bsus4 B
Baptisms of fire
B/A# G#m D#m
I've witnessed your suf__fering
E F#sus4
As the battle raged higher

F# G#m D#m
And though they did hurt me so bad
E C#m F#sus4
In the fear and alarm
F# G#m E F#sus4
You did not de_sert me my bro_thers in arms

( F# G#m E C#m E )
( G#m E C#m G#m )

F# G#m B F#
There's so ma_ny different worlds
B E F#sus4
So ma_ny different suns
F# G#m B F#
And we have just one world
B E
But we live in different ones

[Solo] G#m E C#m E G#m E C#m
G#m E C#m E G#m E C#m
G#m

F# E F#
Now the sun's gone to hell__ and
B Bsus4 B
The moon's riding high
B/A# G#m D#m
Let me bid you farewell
E F#sus4
Every man has to die

F# G#m D#m
But it's written in the star___ light
E C#m F#sus4
And every line in your palm
F# G#m E F#sus4 F#
We're fools to make war on our bro_thers in arms

[Solo] G#m E C#m E G#m E C#m
G#m E C#m E F# G#m E C#m
G#m E C#m E G#m E C#m
G#m E

ACORDES PARA GUITARRA

PIANO UKELELE
G#m/D#
G#m/B
G#m
F#
E
B
Bsus4
B/A#
D#m
F#sus4
C#m


COMENTARIOS

Aún no hay comentarios,

¡escribe el primero!

Escribe una pregunta, duda o comentario sobre esta canción, te responderemos a la brevedad.

Las más tocadas de Dire Straits

Toca una Canción al Azar de Dire Straits
G#m/D#
G#m/B
G#m
F#
E
B
Bsus4
B/A#
D#m
F#sus4
C#m