Walk of Life
Dire Straits
Acordes

Subida por Jcal
Álbum: Brothers in Arms ( 1985)


Más Versiones
Ver. 2 Ver. 3 Ver. 4 Ver. 5 Ver. 6
+A
-A
Padrão Rítmico:
E
E|-----------------------------------------
B|-----------------------------------------
G|-----------------------------------------
D|-----------------------------------------
A|-2-2-2-2---2-2-2-2---2-2-2-2---2-2-2-2---
E|-----------------------------------------
p i i i p i i i p i i i p i i i
m m m m m m m m m m m m
? ? ? ? ? ? ? ? ? ? ? ?

Riff 1:
E
E|-----------------------------------------
B|-----------------------------------------
G|-----------------------------------------
D|-----------------------------------------
A|-2-2-4-2---2-2-4-2---2-2-4-2---2-2-4-2---
E|-----------------------------------------

(Variação 1)
E
E|-----------------------------------------
B|-----------------------------------------
G|-----------------------------------------
D|-----------------------------------------
A|-2-2-4-2---2-2-4-2---2-2-x-4p2-2--2-2----
E|-----------------------------------------

(Variação 2)
E
E|-----------------------------------------
B|-----------------------------------------
G|-----------------------------------------
D|-----------------------------------------
A|-2-2-4-2---2-2-4-2---2-2-x-4p2-2----2----
E|----------------------------------4------

Riff 2:
A
E|-----------------------------------------
B|-----------------------------------------
G|-----------------------------------------
D|-2-2-4-2---2-2-4-2---2-2-x-4p2-2--2-2----
A|-----------------------------------------
E|-----------------------------------------

(Variação 3)
A
E|-----------------------------------------
B|-----------------------------------------
G|-----------------------------------------
D|-2-2-4-2---2-2-4-2---2-2-x-4p2-2----2----
A|----------------------------------4------
E|-----------------------------------------

Riff 3:
B
E|-----------------------------------------
B|-----------------------------------------
G|------------4------4---------------------
D|------------4------4---------------------
A|-2---2-2-2-----2-2----2-2-2-2-2-2--------
E|-----------------------------------------

Riff 4:
A
E|-----------------------------------------
B|-----------------------------------------
G|-----------------------------------------
D|-2-2-x-4p2-2--4-2------------------------
A|-------------------2-0-------------------
E|------------------------4-2--------------

(Variação 5)
E
E|-----------------------------------------
B|-----------------------------------------
G|-----------------------------------------
D|-2-2-2-2---2-2-2-2---2-2-2-2---2-2-2-2---
A|-2-2-4-2---2-2-4-2---2-2-4-2---2-2-4-2---
E|-----------------------------------------
Here comes Johnny...

(Variação 6)

E
E|-----------------------------------------
B|-----------------------------------------
G|-----------------------------------------
D|-2-2-2-2---2-2-2-2---2-2-x-2---2--2-2----
A|-2-2-4-2---2-2-4-2---2-2-x-4p2-2--2-2----
E|-----------------------------------------
Down in the tunnels...

(Variação 7)
A
E|-----------------------------------------
B|-----------------------------------------
G|-----------------------------------------
D|-2-2-4-2---2-2-4-2---2-2-x-4p2-2--2-2----
A|-0-0-0-0---0-0-0-0---0-0-x-0---0--0-0----
E|-----------------------------------------
He got the action....

Lick:
E|-------12--------------------------------
B|-----------------------------------------
G|-12b14----14r12-12-----------------------
D|-------------------14~-------------------
A|-----------------------------------------
E|-----------------------------------------

Refrão:
B
E|-----------------------------------------
B|-----------------------------------------
G|-----------------------------------------
D|-----------------------------------------
A|------0-0--2-2-4-2---2-2-4-2-------------
E|-4-4-------------------------------------
He do the song about the sweet lovin' woman

E A
E|-----------------------------------------
B|-----------------------------------------
G|-----------------------------------------
D|-------------------2-2-2-4p2--2-2-2------
A|-------------------0-0-0-0----0-0-0------
E|-0-0-0-0--2-2-4-4------------------------
He do the song about the knife

B
E|-----------------------------------------
B|-----------------------------------------
G|-----------------------------------------
D|-----------------------------------------
A|-2-2-4-2-5-2-4-2---2-2-2-2--2-2-2-2------
E|-----------------------------------------
He do the walk, he do the walk of...

A B
E|-----------------------------------------
B|-----------------------------------------
G|-------------------4-4--4-4--4-4--4-4----
D|-------------------4-4--4-4--4-4--4-4----
A|-0-0-0-0-----------2-2--0-0--------------
E|----------2-2-2-2------------4-4--2-2----
life . Yeah, he do the walk of life...


Intro: E A B A B

Estrofes:

E
Here comes Johnny singing oldies, goldies Be-Bop-A-Lula, Baby What I Say
Here comes Johnny singing I Gotta Woman
Down in the tunnels, trying to make it pay

A
He got the action, He got the motion
E
Yeah the boy can play
A
Dedication, devotion
E
Turning all the night time into the day
E B
He do the song about the sweet lovin' woman
E A
He do the song about the knife
E B A
He do the walk, he do the walk of life.
B E
Yeah, he do the walk of life

E
Here comes Johnny and he'll tell you the story
Hand me down my walkin' shoes
Here come Johnny with the power and the glory
Backbeat the talkin' blues

Refrão:
A
He got the action, He got the motion
E
Yeah the boy can play
A
Dedication, devotion
E
Turning all the night time into the day
E B
He do the song about the sweet lovin' woman
E A
He do the song about the knife
E B A
He do the walk, he do the walk of life.
B E
Yeah, he do the walk of life

Estrofes:
E
Here comes Johnny singing oldies, goldies Be-Bop-A-Lula, Baby What I Say
Here comes Johnny singing I Gotta Woman
Down in the tunnels, trying to make it pay

A
He got the action, He got the motion
E
Yeah the boy can play
A
Dedication, devotion
E
Turning all the night time into the day
E B
And after all the violence and double talk
E A
There's just a song in all the trouble and the strife
E B A
You do the walk, you do the walk of life.
B E
Yeah, you do the walk of life

(repetir base da intro)

ACORDES PARA GUITARRA

PIANO UKELELE
E
A
B


COMENTARIOS

Aún no hay comentarios,

¡escribe el primero!

Escribe una pregunta, duda o comentario sobre esta canción, te responderemos a la brevedad.

Las más tocadas de Dire Straits

Toca una Canción al Azar de Dire Straits
E
A
B