Heavy Fuel
Dire Straits
Acordes

Subida por Bajista61
Álbum: On Every Street ( 1991)


Más Versiones
Ver. 2 Ver. 3 Ver. 4 Ver. 5 Ver. 6
+A
-A
d = damp
~ = light vibrato
b = light bend

Intro 1:

E--------------------------------
H--------------------------------
G--------------------------------
D-9-9d-9-9d-9-9d-9d-9d-9--------- x4
A-7-7d-7-7d-7-7d-7d-7d-7-10-7----
E-----------------------------10-


Intro 2:

E--------------------------------------------------------------------
H--------------------------------------------------------------------
G--------------------------------------------------------------------
D-9-9-----------9--9-9-9------------9-9-----------9--9-9-9-7----7----
A-7-7-10-7------7--7-7-7-10b-7------7-7-10-7------7--7-7-7---10b--10b
E----------10-7----------------10-7----------10-7--------------------


Intro 3:

E--------------------------------------------------------------------
H--------------------------------------------------------------------
G--------------------------------------------------------------------
D-9-9------------9-9-9------------9-9----------9--9-9-9-7-----7------
A-7-7-10-7-------7-7-7-10b-7------7-7-10-7-----7--7-7-7---10b---10b--
E----------10-7-------------10-7----------10-7-----------------------


Verse:

Last time ...

E-----------------------------------------
H-----------------------------------------
G-----------------------------------------
D-----------9----------9----------9------- x3
A-----------7----------7----------7-----7-
E------------------------------------10~--

E--------------------------------
H--------------------------------
G--------------------------------
D------------------------7-------
A---9--------9---------9---10-7--
E---7--------7---------7---------


C D

C D (Intro 1 starts here)

C D


Intro 1 x2
Intro 3////////////////// ¿Te Animas? Sube una canción a este sitio. //////////////////

ACORDES PARA GUITARRA

PIANO UKELELE


COMENTARIOS

Aún no hay comentarios,

¡escribe el primero!

Escribe una pregunta, duda o comentario sobre esta canción, te responderemos a la brevedad.

Las más tocadas de Dire Straits

Toca una Canción al Azar de Dire Straits