Arraial Dos Santos

Discopraise

Acordes

Subida por Omilfer20


Más Versiones
Ver. 2 Ver. 3 Ver. 4 Ver. 5 Ver. 6

Cambiar Cifrado
Americano Latino

Cambiar Tonalidad
-1 +1

Partir Pantalla Imprimir FAQ

+A
-A
Mudar para Português

Ver solo la LETRA


INTRODUÇÃO

C
E|----------------------------------------------------|
B|----------------------------------------------------|
G|----------------------------------------------------| 4x
D|---10-8-10-8-10----10-8-10(desliza para a mão)------|
A|----------------------------------------------------|
E|-8--------------8-----------------------------------|

C
E|----------------------------------------------------|
B|----------------------------------------------------|
G|----------------------------------------------------| 2x
D|---10-8-10-8-10----10-8-10(desliza para a mão)------|
A|----------------------------------------------------|
E|-8--------------8-----------------------------------|
No arraial dos Santos, transborda a alegria de Deus

F - C
E|---------------------------------------------------|
B|---------------------------------------------------|
G|---10-8-10-8-10---10-8-10--------------------------|
D|----------------------------10-8-10-8-10--10-8-----|
A|-8--------------8----------------------------------|
E|---------------------------8-------------8---------|
No arraial dos Santos, transborda a alegria de Deus

G F C
E|-------------------------------------------------------------------|
B|-------------------------------------------------------------------|
G|--12-10-12-10-12---10-8-10-8-10------------------------------------|
D|-----------------------------------10-8-10-8-10---10-8-10----------|
A|10---------------8-------------------------------------------------|
E|----------------------------------8-------------8------------------|
No arraial dos Santos, transborda a alegria de Deus

E|------------------------------------------------------------------|
B|------------------------------8S7S8S7S8S7S6-6---------------------|
G|------------------------------7S6S7S6S7S6S5-5---------------------|
D|---10-8-10-8-10----10-8-10----------------------------------------|
A|------------------------------------------------------------------|
E|-8---------------8------------------------------------------------|
Liberto do Egito, agora eu caminho para a promessa

E|---------------------------------------------------|
B|-----------------------------8S7S8S7S8S7S6---------|
G|---10-8-10-8-10---10-8-10----7S6S7S6S7S6S5---------|
D|---------------------------------------------------|
A|-8--------------8----------------------------------|
E|---------------------------------------------------|
E quando a arca se move, eu sei qu'eu me aproximo do meu lar

D|--12-----10-------------------------------------------|
A|--10-----8---12------7-8-9-10-------------------------| 2X
E|-------------10-----8---------------------------------|
O fogo sobe, a glória desce, Eu vou marchando, e cantando e dançando

D|--12-----10-------------------------------------------|
A|--10-----8---10---------------------------------------|
E|-------------8----------------------------------------|
Eu vou para Canaã
Eu vou pra terra prometida
Eu vou para Canaã

G|-2--5-7-5-2-|
D|-2--5-7-5-2-| 3X
A|-0--------0-|

G|-2--9-8-7---7-6-5--|
D|-2--7-6-5---5-4-3--|
A|-0-----------------|

C
E|----------------------------------------------------|
B|----------------------------------------------------|
G|----------------------------------------------------| 2x
D|---10-8-10-8-10----10-8-10(desliza para a mão)------|
A|----------------------------------------------------|
E|-8--------------8-----------------------------------|
No arraial dos Santos, transborda a alegria de Deus

F C
E|---------------------------------------------------|
B|---------------------------------------------------|
G|---10-8-10-8-10---10-8-10--------------------------|
D|----------------------------10-8-10-8-10--10-8-----|
A|-8--------------8----------------------------------|
E|---------------------------8-------------8---------|
No arraial dos Santos, transborda a alegria de Deus

E|-------------------------------------------------------------------|
B|-------------------------------------------------------------------|
G|--12-10-12-10-12---10-8-10-8-10------------------------------------|
D|-----------------------------------10-8-10-8-10---10-8-10----------|
A|10---------------8-------------------------------------------------|
E|----------------------------------8-------------8------------------|
No arraial dos Santos, transborda a alegria de Deus

E|------------------------------------------------------------------|
B|------------------------------8S7S8S7S8S7S6-6---------------------|
G|------------------------------7S6S7S6S7S6S5-5---------------------|
D|---10-8-10-8-10----10-8-10----------------------------------------|
A|------------------------------------------------------------------|
E|-8--------------8-------------------------------------------------|
Liberto do Egito, agora eu caminho para a promessa

E|---------------------------------------------------|
B|---------------------------------------------------|
G|---10-8-10-8-10---10-8-10--------------------------|
D|-----------------------------10-8-10-8-10--10-8-10-|
A|-8--------------8----------------------------------|
E|----------------------------8-------------8--------|
E quando a arca se move, eu sei qu'eu me aproximo do meu lar

D|--12-----10-------------------------------------------|
A|--10-----8---10------7-8-9-10-------------------------| 2X
E|-------------8-----8---------------------------------|
O fogo sobe, a glória desce, Eu vou marchando, e cantando e dançando

D|--12-----10-------------------------------------------|
A|--10-----8---10---------------------------------------|
E|-------------8---------------------------------------|
Eu vou para Canaã
Eu vou pra terra prometida
Eu vou para Canaã

G (PUXA O SOLO)

(C F C G F)base para o solo de guitarra, em power acordes

E|--7S8--12S13--7S8---14S15--12S13-----------------------------------|
B|--7S8--12S13--7S8---14S15--12S13-----------------------------------|

(C F C G F) base para o solo de guitarra, em power acordes

FINAL
A|--7-8-9-10-------------------------| 2X

TERMINA EM C (power acorde)

NUEVO FORO DE MÚSICA

¿Tienes alguna duda, consulta, pregunta, consejo o algo para compartir sobre esta canción?

¡Puedes abrir un hilo en el FORO para que la comunidad te ayude! Hacer una pregunta

ACORDES PARA GUITARRA

PIANO UKELELE
C
F
G


Las más tocadas de Discopraise

C
F
G