Pedra Na Mão

Discopraise

Acordes

Subida por lautitranquilli


Más Versiones
Ver. 2 Ver. 3 Ver. 4 Ver. 5 Ver. 6

Cambiar Cifrado
Americano Latino

Cambiar Tonalidad
-1 +1

Partir Pantalla Imprimir FAQ

+A
-A
Mudar para Português

Ver solo la LETRA
[Intro]  Bm7  Em7  F#m7

Bm7
Pedra na mão,gigante na mira
Em7 F#m7
Poder de Deus é minha artilharia
Bm7
Pedra na mão,gigante na mira
Em7 F#m7
Poder de Deus é minha artilharia
Bm7 A Em7 F#m7
Vou derrubar esse gigante (4x) Pow

Bm7 Em7 F#m7
Oooooooh

G A Bm
Oooooooh

[Solo] Bm7 Em7 F#m7

E|-----------------------------------------------------------------------|
B|---------------------------------------------------7-------------------|
G|-----------------------------------7---9--9--9--9----9b11--9--7--------|
D|-----9--9--7--9---7--9--7--9--7--9-------------------------------9--7--|
A|-----------------------------------------------------------------------|
E|-----------------------------------------------------------------------|

E|-----------------------------------------------------------------------------|
B|-----------------------------------------------------------------------------|
G|-----------------------------------7---9--9--9--9-----7--9--9b11--9--7-------|
D|-----9--9--7--9---7--9--7--9--7--9-----------------9-------------------9--7--|
A|-----------------------------------------------------------------------------|
E|-----------------------------------------------------------------------------|

E|-----------------------------------------------------------------------------|
B|-----------------------------------------------------------------------------|
G|-----------------------------------7---9--9--9--9-----7--9--9b11--9--7-------|
D|-----9--9--7--9---7--9--7--9--7--9-----------------9-------------------9--7--|
A|-----------------------------------------------------------------------------|
E|-----------------------------------------------------------------------------|

E|---------------------------------------------------------------------------------|
B|----10b12--10b12--10b12--10b12--10b12------10b12--10b12--10b12--10b12--10b12-----|
G|---------------------------------------------------------------------------------|
D|---------------------------------------------------------------------------------|
A|---------------------------------------------------------------------------------|
E|---------------------------------------------------------------------------------|

ACORDES PARA GUITARRA

PIANO UKELELE
Bm7
Em7
F#m7
A
G
Bm


Las más tocadas de Discopraise

Bm7
Em7
F#m7
A
G
Bm