Ouvir o Teu Falar

Discopraise

Acordes

Subida por jesus2003


Más Versiones
Ver. 2 Ver. 3 Ver. 4 Ver. 5 Ver. 6

Cambiar Cifrado
Americano Latino

Cambiar Tonalidad
-1 +1

Partir Pantalla Imprimir FAQ

+A
-A
Mudar para Português

Ver solo la LETRA
Intro:  A  F#m7  E  B/D#   A  F#m7  E  B/D#
B/A E/A A9
B/A E/A A9

[Solo]

E|----------------------------|
B|-4-4/5--4-654/5--10-97--9-47|
G|----------------------------|
D|----0----0------0------9----| (9x)
A|----------------------------|
E|----------------------------|

E C#m
Quanto mais eu corro mais cansado eu fico
B
Não importa o quanto eu me sacrifico
A
Meus objetivos não consigo alcançar

E C#m
Já trilhei em todos os caminhos
B
Já gritei por todos mas fiquei sozinho
A
Sinto minha força se esgotar Vem me ajudar

C#m B A
Tenho ouvido falar das tuas maravilhas
C#m B A
E tens poder pra salvar
C#m B A E/G#
Escreve um novo começo pra minha vida
F#m7 E B/D# B
Creio que ainda hoje tudo vai mudar

E
Levantarei meu olhos
B
E clamarei socorro
C#m7 E/G# A
Tua palavra diz que vais me escutar
E
Levantarei meus olhos
B/D#
E clamarei socorro
C#m7 E/G# A
Meu Coração só quer ouvir o teu falar

E|------------------------------------------------------------|
B|------------------------------------------------------------|
G|-----6------------------------------------------------------|
D|-----6-8-9---8-8-6-4-8-6--------13--------------------------|
A|-----------7----------------------14-16-17---16-14-12-16-14~|
E|-------------------------------------------14---------------|


[Solo] C#m7 B E/G# A C#m7 B E/G# A

F#m7
O que espera em Ti
A
Jamais se abalará
E
Jamais se cansará
B/D#
Jamais desistirá
F#m7
O Teu sonho agora é o que
A
eu espero alcançar
E
Em Teu caminho andar
B/D# B
Meu maior desejo é te agradar

E
Levantarei meu olhos
B
E clamarei socorro
C#m7 E/G# A
Tua palavra diz que vais me escutar
E
Levantarei meus olhos
B/D#
E clamarei socorro
C#m7 E/G# A
Meu Coração só quer ouvir o teu falar


A F#m7 E B/D#
Ooh Ooh Ooh Ooh

A F#m7 E B/D#
Ooh Ooh Ooh Ooh

[Final] B/A E/A A9 B/A E/A A9
E
Ouvir o teu falar, o teu falar

NUEVO FORO DE MÚSICA

¿Tienes alguna duda, consulta, pregunta, consejo o algo para compartir sobre esta canción?

¡Puedes abrir un hilo en el FORO para que la comunidad te ayude! Hacer una pregunta

ACORDES PARA GUITARRA

PIANO UKELELE
A
F#m7
E
B/D#
B/A
E/A
A9
C#m
B
E/G#
C#m7


Las más tocadas de Discopraise

A
F#m7
E
B/D#
B/A
E/A
A9
C#m
B
E/G#
C#m7