Cry For Eternity
DragonForce
Acordes

Subida por cvilla
Álbum: Inhuman Rampage ( 2005)



Cambiar Cifrado
Americano Latino

Cambiar Tonalidad
-1 +1

Partir Pantalla Imprimir FAQ

+A
-A
       S  S  S  S  S  S  S  S  S  S  S  S  S  S  S  S 24x
E||------10-12p-0-12p-0-10p-0-12p-0-10p-0-15p-0-15-17--||
B||---10----------------
-------------------------------||
G||*----------------
----------------
------------------*||
D||*----------------
----------------
------------------*||
A||----------------
----------------
--------------------||
E||----------------
----------------
--------------------||

E S S E E E E E E E E E E E E E E
---------------------12------12--13--|--15--12---------13--10----------||
---13--13-13-13--15------13----------|----------13--L----------12--L---||
*----------------
--------------------|----------------
----------------*||
*----------------
--------------------|----------------
----------------*||
----------------
---------------------|----------------
-----------------||
----------------
---------------------|----------------
-----------------||

E S E S E H
--17----15----17--<>19~---------||
----------------
----------------||
-------------------------------*||
-------------------------------*||
----------------
----------------||
----------------
----------------||

E E S S S S E E S S S S
--<>15~---------------------<>12~-------------------|
---------13--10h-13p-10h-13--------12--8h-12p-8h-12-|
----------------
----------------
--------------------|
----------------
----------------
--------------------|
----------------
----------------
--------------------|
----------------
----------------
--------------------|

S S S S S S S S S S S S S S S S
--8----8-10-12-8-10-12-13-10-12-13-15-12-13-15-|
----12----------------
-------------------------|
----------------
-------------------------------|
----------------
-------------------------------|
----------------
-------------------------------|
----------------
-------------------------------|

T T T T -6
|--3-| |--3-| |--3-| |--3-|
S S S S S S S S S S S S H E E E E E E Q
--17-8-12-17-12-8-17-8-12-17-12-8-12--------|-------------------------------|
----------------
----------------------------|--13--13--L--12--13--12--------|
----------------
----------------------------|-------------------------14----|
----------------
----------------------------|-------------------------------|
----------------
----------------------------|-------------------------------|
----------------
----------------------------|-------------------------------|

E E E E E E Q E E E E E E E E
-------------------------------|----------------
-----------------|
-------------------------------|----------------
-----------------|
-------------12----------------|----------------
-----------------|
--15--15--L------15--14--------|---------------------12--14--15--|
-------------------------12----|--15--15--L--14--15--------------|
-------------------------------|----------------
-----------------|

E E E E E E Q E E E E E E E E
----------------
--------------------|----------------
------------------|
--<>13------------------------------|--15--15--L--13--15--13--15S--17--|
--------12--------------12----------|----------------
------------------|
------------14--15---L------<>14----|----------------
------------------|
----------------
--------------------|----------------
------------------|
----------------
--------------------|----------------
------------------|

E E E E E E Q Q. Q E Q
----------------
------------------|--15------12-------------|
--15--15--L--13--15--13--<>15b----|-------------------13----|
----------------
------------------|-------------------------|
----------------
------------------|-------------------------|
----------------
------------------|-------------------------|
----------------
------------------|-------------------------|

E E E H E E E E E E E Q
------------------------------|--17--17--L--15--17--15--------|
--15h--17-----<>15~--------L--|-------------------------17----|
------------------------------|-------------------------------|
------------------------------|-------------------------------|
------------------------------|-------------------------------|
------------------------------|-------------------------------|

E E E E E E Q E E E E E E E E
-------------12----------------|---------------------12--15--17--|
--15--15--L------15--13--------|---------13--13--15--------------|
-------------------------14----|-----14--------------------------|
-------------------------------|----------------
-----------------|
-------------------------------|----------------
-----------------|
-------------------------------|----------------
-----------------|

E Q E E Q.
--22br---L-----------<>15------|
--------------13---------------|
-------------------------------|
-------------------------------|
-------------------------------|
-------------------------------|

T T T T T T T T
S S S S S S S S S S S S S S S S
--15-10-15-10-15-10-15-7-15-10-15-10-15-10-15-7-|
----------------
----------------
----------------|
----------------
----------------
----------------|
----------------
----------------
----------------|
----------------
----------------
----------------|
----------------
----------------
----------------|

T T T T
S S S S S S S S E E E E
--15-10-15-10-15-7-15-10-------------------|
-------------------------13s--12--13s--12--|
----------------
---------------------------|
----------------
---------------------------|
----------------
---------------------------|
----------------
---------------------------|

S S S S S S S S S S S S S S S S E E H Q
--15-14-12----17-15-14----19-17-15----20-19-17----|--24-------------------|
-----------15----------17----------19----------20-|-----------------------|
----------------
----------------
------------------|-----------------------|
----------------
----------------
------------------|-----------------------|
----------------
----------------
------------------|-----------------------|
----------------
----------------
------------------|-----------------------|

E S S S S S S S S S S S S S S S S S S S S S S S S S S S S E
----------------
-----------------|----------------
-----------------|
----------------
-----------------|----------------
-----------------|
----------------
-----------------|----------------
-----------------|
--2------------------------------|----------------
-----------------|
--0--0-0-0-0-0-0-0-0-0-0-0-0-0-0-|--0-0-0-0-0-0-0-0-0-0-0-0-3-5-3--|
----------------
-----------------|----------------
-----------------|

E S S S S S S S S S S S S S S S S S S S S S S E E E E
----------------
-----------------|------------------------------|
----------------
-----------------|------------------------------|
----------------
-----------------|------------------------------|
----------------
-----------------|------------------------------|
--3------------------------------|------------------------2--5--|
--1--1-1-1-1-1-1-1-1-1-1-1-1-1-1-|--1-1-1-1-1-1-1-1-1--1--0--3--|

E S S S S S S S S S S S S S S S S S S E E E E E E
----------------
-----------------|----------------------------|
----------------
-----------------|----------------------------|
----------------
-----------------|----------------------------|
--2------------------------------|----------------2-----------|
--0--0-0-0-0-0-0-0-0-0-0-0-0-0-0-|--0-0-0-0-0--0--0--0--0--0--|
----------------
-----------------|----------------------------|

W W E S S S S S S S S S S S S S S
-------------------|-------------------|----------------
-----------------|
-------------------|-------------------|----------------
-----------------|
--5----------------|-------------------|----------------
-----------------|
--5----------------|--5----------------|--2------------------------------|
--3----------------|--5----------------|--0--0-0-0-0-0-0-0-0-0-0-0-0-0-0-|
-------------------|--3----------------|----------------
-----------------|

S S S S S S S S S S S S S S S S E S S S S S S S S S S S S S S
----------------
------------------|----------------
-----------------|
----------------
------------------|----------------
-----------------|
----------------
------------------|----------------
-----------------|
----------------
------------------|----------------
-----------------|
--0-0-0-0-0-0-0-0-0-0-0-0-0-0-0-0-|--3------------------------------|
----------------
------------------|--1--1-1-1-1-1-1-1-1-1-1-1-1-1-1-|

S S S S S S S S S S S S S S S S W W
----------------
------------------|-------------------|-------------------|
----------------
------------------|-------------------|-------------------|
----------------
------------------|--2----------------|--5----------------|
----------------
------------------|--2----------------|--5----------------|
----------------
------------------|--0----------------|--3----------------|
--1-1-1-1-1-1-1-1-1-1-1-1-1-1-1-1-|-------------------|-------------------|

W W E S S S S S S S S S S S S S S
-------------------|-------------------||----------------
------------------|
-------------------|-------------------||----------------
------------------|
-------------------|-------------------||*----------------
-----------------|
--3----------------|--5----------------||*--7------------------------------|
--3----------------|--5----------------||---5--5-5-5-5-5-5-5-5-5-5-5-5-5-5-|
--1----------------|--3----------------||----------------
------------------|

E S S S S E S S S S S S S S E E E E E E E E
----------------
----------------|----------------------------|
----------------
----------------|----------------------------|
----------------
----------------|----------------------------|
--7----------7------------------|--------<>2-----------2-----|
--5--5-5-5-5-5--5-5-5-5-5-5-5-5-|--0--0-------0--0--0-----0--|
----------------
----------------|----------------------------|

PM PM PM PM PM PM PM
E E E E E E E E W W
---------------------------||-------------------|-------------------|
---------------------------||-------------------|-------------------|
--------------------------*||--2----------------|-------------------|
--3--2-----------2-----2--*||--2----------------|--5----------------|
--------5--3--5-----3--0---||--0----------------|--5----------------|
---------------------------||-------------------|--3----------------|

Q H Q E S S S S S S S S S S S S S S
|-----------------------||----------------
-----------------|
|-----------------------||----------------
-----------------|
|*---------------------*||----------------
-----------------|
|*--3------------------*||--2------------------------------|
|---3-------------------||--0--0-0-0-0-0-0-0-0-0-0-0-0-0-0-|
|---1-------------------||----------------
-----------------|

PM PM PM PM
S S S S S S S S E E E E Q H Q
------------------------------||-----------------------||
------------------------------||-----------------------||
------------------------------||*---------------------*||
---------------------------2--||*--3------------------*||
--0-0-0-0-0-0-0-0-5--3--5-----||---3-------------------||
------------------------------||---1-------------------||

Q E E E E E E E E E E E E E E W
--------------------------|---------------------------||-------------------|
--------------------------|---------------------------||-------------------|
*-------------------------|--------------------------*||-------------------|
*-------------------------|--------------------------*||--2----------------|
---2----------------------|---------------------------||--2----------------|
---0----0--0--0--0--0--0--|--0--0--0--0--0--0--0--0---||--0----------------|

W W W
|--------------------|-------------------|-------------------|
|--------------------|-------------------|-------------------|
|*--2----------------|--5----------------|-------------------|
|*--2----------------|--5----------------|--5----------------|
|---0----------------|--3----------------|--5----------------|
|--------------------|-------------------|--3----------------|

W W W W
-------------------|-------------------|-------------------|-------------------|
-------------------|-------------------|-------------------|-------------------|
--2----------------|-------------------|--5----------------|--2----------------|
--2----------------|--3----------------|--5----------------|--2----------------|
--0----------------|--3----------------|--3----------------|--0----------------|
-------------------|--1----------------|-------------------|-------------------|

W E S S S S S S S S S S S S S S
--------------------||----------------
-----------------|
--------------------||----------------
-----------------|
-------------------*||----------------
-----------------|
--5----------------*||----------------
-----------------|
--5-----------------||--3------------------------------|
--3-----------------||--1--1-1-1-1-1-1-1-1-1-1-1-1-1-1-|

S S S S S S S S S S S S S S S S Q H Q
----------------
------------------|---------------------|
----------------
------------------|---------------------|
----------------
------------------|---------------------|
----------------
------------------|--2------------------|
----------------
------------------|--2------------------|
--1-1-1-1-1-1-1-1-1-1-1-1-1-1-1-1-|--0------------------|

S S S S S S S S S S S S S S S S
|----------------
----------------------------||
|----------------
----------------------------||
|*--12-12-9-9-14-14-9-9-12-12-9-9-14-14-9-9-*||
|*----------------
--------------------------*||
|----------------
----------------------------||
|----------------
----------------------------||

S S S S S S S S S S S S S S S S
---15-15-12-12-17-17-12-12-15-15-12-12-17-17-12-12--||
----------------
----------------
--------------------||
*----------------
----------------
------------------*||
*----------------
----------------
------------------*||
----------------
----------------
--------------------||
----------------
----------------
--------------------||

T T T T T T T T
S S S S S S S S S S S S S S S S
------------------12-8-12-8-10-8-12-8-|
----------------
----------------------|
--9-5-9-5-7-5-9-5---------------------|
----------------
----------------------|
----------------
----------------------|
----------------
----------------------|

T T T T T T T T
S S S S S S S S S S S S S S S S
--------------------------20-17-20-17-19-17-20-17-|
----------------
----------------
------------------|
--17-14-17-14-16-14-17-14-------------------------|
----------------
----------------
------------------|
----------------
----------------
------------------|
----------------
----------------
------------------|

E Q E E E E E E Q E E E Q
-----13b~----13--15--13--12------|-------------------12----------|
-----------------------------13--|-----13----12--13------15b~----|
----------------
-----------------|-------------------------------|
----------------
-----------------|-------------------------------|
----------------
-----------------|-------------------------------|
----------------
-----------------|-------------------------------|

S S S S S S S S S S S S S S S S
|----------------
----------------
--------------------||
|----------------
----------------
--------------------||
|*--17-17-14-14-19-19-14-14-17-17-14-14-19-19-14-14-*||
|*----------------
----------------
------------------*||
|----------------
----------------
--------------------||
|----------------
----------------
--------------------||

S S S S S S S S S S S S S S S S
----------------
----------------
--------------------||
----------------
----------------
--------------------||
*--17-17-14-14-21-21-14-14-17-17-14-14-21-21-14-14-*||
*----------------
----------------
------------------*||
----------------
----------------
--------------------||
----------------
----------------
--------------------||

T T T T T T T T
|--3--| |--3--| |--3--| |--3--| |--3--| |--3--| |--3--| |--3--|
S S S S S S S S S S S S S S S S S S S S S S S S
--20-12-15-20-12-15-20-12-15-22-12-15-22-15-12-20-15-12-20-15-12-20-15-12-|
----------------
----------------
----------------
--------------------------|
----------------
----------------
----------------
--------------------------|
----------------
----------------
----------------
--------------------------|
----------------
----------------
----------------
--------------------------|
----------------
----------------
----------------
--------------------------|

T T T T T T T T
|--3--| |--3--| |--3--| |--3--| |--3--| |--3--| |--3--| |--3--|
S S S S S S S S S S S S S S S S S S S S S S S S
--20-15-12-20-15-12-20-15-12-22-15-12-20-12-15-20-12-15-20-12-15-22-12-15-|
----------------
----------------
----------------
--------------------------|
----------------
----------------
----------------
--------------------------|
----------------
----------------
----------------
--------------------------|
----------------
----------------
----------------
--------------------------|
----------------
----------------
----------------
--------------------------|

E E E E E E E E E E E E E E S S S S
--13--15--L--13--15--20--15--13--|--12--13--L--12--13--15--13-15-13-12-|
----------------
-----------------|----------------
---------------------|
----------------
-----------------|----------------
---------------------|
----------------
-----------------|----------------
---------------------|
----------------
-----------------|----------------
---------------------|
----------------
-----------------|----------------
---------------------|

Q H Q S S S S S S S S S S S S S S S S
--<>17~------------------|-------|----------------
--------------------------|
-------------------------|-------|----------------
--------------------------|
-------------------------|-------|--12-12-9-9-14-14-9-9-12-12-9-9-14-14-9-9-|
-------------------------|-------|----------------
--------------------------|
-------------------------|-------|----------------
--------------------------|
-------------------------|-------|----------------
--------------------------|

S S S S S S S S S S S S S S S S
----------------
--------------------------|
----------------
--------------------------|
--12-12-9-9-14-14-9-9-12-12-9-9-14-14-9-9-|
----------------
--------------------------|
----------------
--------------------------|
----------------
--------------------------|

S S S S S S S S S S S S S S S S
--15-15-12-12-17-17-12-12-15-15-12-12-17-17-12-12-|
----------------
----------------
------------------|
----------------
----------------
------------------|
----------------
----------------
------------------|
----------------
----------------
------------------|
----------------
----------------
------------------|

S S S S S S S S S S S S S S S S
--15-15-12-12-17-17-12-12-15-15-12-12-17-17-12-12-|
----------------
----------------
------------------|
----------------
----------------
------------------|
----------------
----------------
------------------|
----------------
----------------
------------------|
----------------
----------------
------------------|

S S E S S S S S S S S S S S S
--8p-7----8h-10p-8-7-8p-7---7-8h-10p-8-7-|
-------8------------------8--------------|
----------------
-------------------------|
----------------
-------------------------|
----------------
-------------------------|
----------------
-------------------------|

S S S S S S S S S S S S S S S S
--20p-19----19-20h-22p-20-19-20p-19----19-20h-22p-20-19-|
---------20-------------------------20------------------|
----------------
----------------
------------------------|
----------------
----------------
------------------------|
----------------
----------------
------------------------|
----------------
----------------
------------------------|

E Q E E E S S S S E Q E S S S S Q
-----12----12--13--12-----------------|-----15----15--17-17-13-13-<>15~----|
-----------------------10h-13p-10h-13-|----------------
--------------------|
----------------
----------------------|----------------
--------------------|
----------------
----------------------|----------------
--------------------|
----------------
----------------------|----------------
--------------------|
----------------
----------------------|----------------
--------------------|

S S S S S S S S S S S S S S S S
|----------------
----------------
--------------------||
|----------------
----------------
--------------------||
|*--17-17-14-14-19-19-14-14-17-17-14-14-19-19-14-14-*||
|*----------------
----------------
------------------*||
|----------------
----------------
--------------------||
|----------------
----------------
--------------------||

S S S S S S S S S S S S S S S S
----------------
----------------
--------------------||
----------------
----------------
--------------------||
*--17-17-14-14-21-21-14-14-17-17-14-14-21-21-14-14-*||
*----------------
----------------
------------------*||
----------------
----------------
--------------------||
----------------
----------------
--------------------||

T T T T T T T T
|--3--| |--3--| |--3--| |--3--| |--3--| |--3--| |--3--| |--3--|
S S S S S S S S S S S S S S S S S S S S S S S S
--20-15-12-20-15-12-20-15-12-22-15-12-20-12-15-20-12-15-20-12-15-22-12-15-|
----------------
----------------
----------------
--------------------------|
----------------
----------------
----------------
--------------------------|
----------------
----------------
----------------
--------------------------|
----------------
----------------
----------------
--------------------------|
----------------
----------------
----------------
--------------------------|

Natural harmonics
NH NH NH NH NH NH NH NH NH NH NH NH NH
S S S S S S S S S S S S S
----------------
----------------
----------------
----------------
----------------
----------------
----------------
----------------
----------------
----------------
--<>17--------------<>17-<>16-<>16-<>15-<>15-<>14-<>14-<>13-<>13-<>12-<>12-<>11-
----------------
----------------
----------------
----------------
----------------
----------------
----------------
----------------
----------------
----------------
----------------
----------------
----------------
----------------
----------------

E E E E E E E E E E E E E E S S S S
--13--15--L--13--15--20--15--13--|--12--15--13----------12-----12-------|
----------------
-----------------|--------------13--15------15----15-13-|
----------------
-----------------|----------------
----------------------|
----------------
-----------------|----------------
----------------------|
----------------
-----------------|----------------
----------------------|
----------------
-----------------|----------------
----------------------|

PM PM PM PM PM PM PM PM
Q H Q E E E E E E E E
--24------------------||----------------
----------------|
-----------------------||----------------
----------------|
-----------------------||*-----------------9-------------|
-----------------------||*--10--10--9--10-----10--9--10--|
-----------------------||----------------
----------------|
-----------------------||----------------
----------------|

PM PM PM PM PM PM PM PM PM PM PM PM PM PM PM PM
E E E E E E E E E E E E E E E E
-------------------------------|-------------------------------|
-------------------------------|-------------------------------|
-----------------9--10--9------|-----------------9-------------|
--10--10--9--10------------10--|--10--10--9--10-----10--9--10--|
-------------------------------|-------------------------------|
-------------------------------|-------------------------------|

PM PM PM PM PM PM PM PM PM PM PM PM PM PM PM PM
E E E E E E E E E E E E E E E E
----------------
----------------||----------------
----------------|
----------------
----------------||----------------
----------------|
-----------------9--10--9------*||--12--12--12--10--10--10--9--9--|
--10--10--9--10------------10--*||----------------
----------------|
----------------
----------------||----------------
----------------|
----------------
----------------||----------------
----------------|

PM PM PM PM PM PM PM PM PM PM PM PM PM PM PM PM
E E E E E E E E E E E E E E E E
|----------------
-------------------|----------------
------------------|
|-------------------13--------------|------------------13--15--13------|
|*--14--14--12--14------14--12--14--|--14--14--12--14--------------14--|
|*----------------
------------------|----------------
------------------|
|----------------
-------------------|----------------
------------------|
|----------------
-------------------|----------------
------------------|

PM PM PM PM PM PM PM PM PM PM PM PM PM PM PM PM
E E E E E E E E E E E E E E E E
----------------
------------------|----------------
-------------------||
------------------13------13--15--|--15--15--15--13--13--13-----------||
--14--14--12--14------14----------|--------------------------14--12--*||
----------------
------------------|----------------
------------------*||
----------------
------------------|----------------
-------------------||
----------------
------------------|----------------
-------------------||

PM PM PM PM PM PM PM PM PM PM PM PM PM PM PM PM
E E E E E E E E E E E E E E E E
----------------------13--15--13--|----------------
------------------||
--13------15------17--------------|--17--17--17--15--15--15--13--13--||
------14------14------------------|----------------
------------------||
----------------
------------------|----------------
------------------||
----------------
------------------|----------------
------------------||
----------------
------------------|----------------
------------------||
ending?

Duration Legend
---------------
W - whole
H - half
Q - quarter
E - 8th
S - 16th
T - 32nd
X - 64th
. - note dotted
|-n-| - n-tuplets


Tablature Legend
----------------
L - tied note
x - dead note
g - grace note
(n) - ghost note
> - accentuded note
NH - natural harmonic
AH - artificial harmonic
TH - tapped harmonic
SH - semi harmonic
PH - pitch harmonic
h - hammer on
p - pull off
b - bend
br - bendRelease
pb - preBend
pbr - preBendRelease
brb - bendReleaseBend

/ - tremolo bar dip

- tremolo bar dive
-/n - tremolo bar Release up
/n - tremolo bar inverted dip
/n - tremolo bar return
-
- tremolo bar Release down
S - shift slide
s - legato slide
/ - slide into from below or out of upwards
- slide into from above or out of downwards
~ - vibrato
W - wide vibrato
tr - trill
TP - tremolo picking
T - tapping
S - slap
P - pop
< - fade in
^ - brush up
v - brush down

ACORDES PARA GUITARRA

PIANO UKELELE
E


COMENTARIOS

Aún no hay comentarios,

¡escribe el primero!

Escribe una pregunta, duda o comentario sobre esta canción, te responderemos a la brevedad.

Las más tocadas de DragonForce

Toca una Canción al Azar de DragonForce
E