Fury of the storm
DragonForce
Acordes

Subida por Adiavil
Álbum: Sonic Firestorm ( 2004)


Más Versiones
Ver. 2 Ver. 3

Cambiar Cifrado
Americano Latino

Cambiar Tonalidad
-1 +1

Partir Pantalla Imprimir FAQ

+A
-A


Ver solo la LETRA
Gtr I (E A D G B E) - '1st Lead'
Gtr II (E A D G B E) - '2nd Lead'
Gtr III (E A D G B E) - 'Rhythm '
Gtr IV (E A D G B E) - 'lead guitar anti glitch'

Intro
Q=200
E5 D5 B5
4/4
Gtr I
Q E E E E Q Q E E E E Q Q E E E E E E
|----------------------|---------------------|-----------------------|
|----------------------|---------------------|-----------------------|
|----------------------|--------14-16-14-----|-----------------------|
|-14--14-16-17-16-14---|-17--17----------17--|-16--16-17-16-14-16-17-|
|----------------------|---------------------|-----------------------|
|----------------------|---------------------|-----------------------|
|
| Gtr II
| Q E E E E Q Q E E E E Q Q E E E E E E
|----------------------|---------------------|-----------------------|
|----------------------|---------7--8--7-----|-----------------------|
|---------7--9--7------|--9---9-----------9--|--7---7--9--7-----7--9-|
|--9---9-----------9---|---------------------|---------------9-------|
|----------------------|---------------------|-----------------------|
|----------------------|---------------------|-----------------------|
|
| Gtr III
| PM PM----|
| Q Q Q E E Q Q Q Q W
|----------------------|---------------------|-----------------------|
|----------------------|---------------------|-----------------------|
|--9---------------9-9-|--7------------------|--4--------------------|
|--9---------------9-9-|--7------------------|--4--------------------|
|--7---------------7-7-|--5------------------|--2--------------------|
|----------------------|---------------------|-----------------------|


S S S S S S S S S S S S S S S S
|----------------------------------------------------|
|----------------------------------------------------|
|-14--14-14-14---------------------------------------|
|--------------17-17-17-17-16-16-16-16---------------|
|--------------------------------------17-17-17-17---|
|----------------------------------------------------|
|
| S S S S S S S S S S S S S S S S
|----------------------------------------------------|
|--7---7--7--7---------------------------------------|
|---------------9--9--9--9--7--7--7--7---------------|
|---------------------------------------9--9--9--9---|
|----------------------------------------------------|
|----------------------------------------------------|
|
| +W
|----------------------------------------------------|
|----------------------------------------------------|
|-(4)------------------------------------------------|
|-(4)------------------------------------------------|
|-(2)------------------------------------------------|
|----------------------------------------------------|


E5 D5
Q E E E E Q Q E E E E Q
|---------------------|---------------------|
|---------------------|---------------------|
|---------------------|--------14-16-14-----|
|-14--14-16-17-16-14--|-17--17----------17--|
|---------------------|---------------------|
|---------------------|---------------------|
|
| Q E E E E Q Q E E E E Q
|---------------------|---------------------|
|---------------------|---------7--8--7-----|
|---------7--9--7-----|--9---9-----------9--|
|--9---9-----------9--|---------------------|
|---------------------|---------------------|
|---------------------|---------------------|
|
| PM
| Q Q Q Q W
|---------------------|---------------------|
|---------------------|---------------------|
|--9------------------|--7------------------|
|--9------------------|--7------------------|
|--7------------------|--5------------------|
|---------------------|---------------------|


B5
q q q q q q q q
|-----------------|-----------------|
|-----------------|-----------------|
|-----------------|-----------------|
|-16--16--16--16--|-16--16--16--16--|
|-----------------|-----------------|
|-----------------|-----------------|
|
| q q q q q q q q
|-----------------|-----------------|
|-----------------|-----------------|
|--7---7---7---7--|--7---7---7---7--|
|-----------------|-----------------|
|-----------------|-----------------|
|-----------------|-----------------|
|
| PM---------------------------|
| q q q q q q q q
|-----------------|-----------------|
|-----------------|-----------------|
|--4---4---4---4--|--4---4---4---4--|
|--4---4---4---4--|--4---4---4---4--|
|--2---2---2---2--|--2---2---2---2--|
|-----------------|-----------------|


E5
S S S S S S S S S S S S S S S S
|-------------------------------------------------|
|-------------------------------------------------|
|----------------------------14-16p14----14-------|
|-14-14-14-16-17-16-14-16-17----------17----17-14-|
|-------------------------------------------------|
|-------------------------------------------------|
|
| S S S S S S S S S S S S S S E
|-------------------------------------------------|
|-----------------------------7--8--7-------------|
|-----------7--9p=7-----7--9-----------9p=7-------|
|--9--9--9-----------9-----------------------9----|
|-------------------------------------------------|
|-------------------------------------------------|
|
| PM----------------------------------------------
| S S S S S S S S S S S S S S S S
|-------------------------------------------------|
|-------------------------------------------------|
|-------------------------------------------------|
|--9----------------------------------------------|
|--7--7--7--7--7--7--7--7--7--7--7--7--7--7--7--7-|
|-------------------------------------------------|


G5
E S S S S S S S S S S S S E
|-------------------------------------------------|
|-------------------------------------------------|
|----------14-16p14----14-14h16p14----14----------|
|-17----17----------17-------------17----17-14----|
|-------------------------------------------------|
|-------------------------------------------------|
|
| E S S S S S S S S S S S S E
|-------------------------------------------------|
|-----------7--8--7-----7--7--8--7-----7----------|
|--7-----7-----------7--------------7-----7-------|
|--------------------------------------------9----|
|-------------------------------------------------|
|-------------------------------------------------|
|
|----------------------------------------------|
| S S S S S S S S S S S S S S S S
|-------------------------------------------------|
|-------------------------------------------------|
|-------------------------------------------------|
|-12----------------------------------------------|
|-10-10-10-10-10-10-10-10-10-10-10-10-10-10-10-10-|
|-------------------------------------------------|


C5
E S S S S S S S S S S S S S S
|------------------------------------------------|
|------------------------------------------------|
|---------14-16p14----14-16h17p16p14-16p14----14-|
|-17---17----------17----------------------17----|
|------------------------------------------------|
|------------------------------------------------|
|
| E S S S S S S S S S S S S S S
|------------------------------------------------|
|----------7--8p=7-----7--8h10p=8p=7--8p=7-----7-|
|--9----9-----------9-----------------------9----|
|------------------------------------------------|
|------------------------------------------------|
|------------------------------------------------|
|
| PM---------------------------------------------
| S S S S S S S S S S S S S S S S
|------------------------------------------------|
|------------------------------------------------|
|------------------------------------------------|
|------------------------------------------------|
|--3-3--3--3--3--3--3--3--3--3--3--3--3--3--3--3-|
|------------------------------------------------|


D5
S S S S S S S S S S S S Q
|------------------------------------------------|
|------------------------------------------------|
|-16-16-16-16-17-17-17-17-16-16-16-16-[14]-------|
|------------------------------------------------|
|------------------------------------------------|
|------------------------------------------------|
|
| S S S S S S S S S S S S Q
|------------------------------------------------|
|--8--8--8--8-10-10-10-10--8--8--8--8--[7]-------|
|------------------------------------------------|
|------------------------------------------------|
|------------------------------------------------|
|------------------------------------------------|
|
|----------------------------------------------|
| S S S S S S S S S S S S S S S S
|------------------------------------------------|
|------------------------------------------------|
|------------------------------------------------|
|------------------------------------------------|
|--5--5--5--5--5--5--5--5--5--5--5--5---5--5-5-5-|
|------------------------------------------------|


E5
E S S S S S S S S S S S S E
|-----------------------------------------------|
|-----------------------------------------------|
|-12---12-14-16-14-12-14-14-16-14-12-14-12------|
|------------------------------------------14---|
|-----------------------------------------------|
|-----------------------------------------------|
|
| E S S S S S S S S S S S S E
|-----------------------------------------------|
|----------7--8p=7-----7--7h=8p=7-----7---------|
|--9----9-----------9--------------9-----9--9---|
|-----------------------------------------------|
|-----------------------------------------------|
|-----------------------------------------------|
|
| PM--------------------------------------------
| S S S S S S S S S S S S S S S S
|-----------------------------------------------|
|-----------------------------------------------|
|-----------------------------------------------|
|-----------------------------------------------|
|--7-7--7--7--7--7--7--7--7--7--7--7--7--7--7-7-|
|-----------------------------------------------|


G5
E S S S S S S S S S S S S E
|-------------------------------------------------|
|-------------------------------------------------|
|-12----12-14-16-14-12-14-14-16-14-12-14-12-------|
|-------------------------------------------12----|
|-------------------------------------------------|
|-------------------------------------------------|
|
| E S S S S S S S S S S S S E
|-------------------------------------------------|
|-----------7--8p=7-----7--7h=8p=7-----7----------|
|--7-----7-----------7--------------7-----7--7----|
|-------------------------------------------------|
|-------------------------------------------------|
|-------------------------------------------------|
|
|----------------------------------------------|
| S S S S S S S S S S S S S S S S
|-------------------------------------------------|
|-------------------------------------------------|
|-------------------------------------------------|
|-------------------------------------------------|
|-10-10-10-10-10-10-10-10-10-10-10-10-10-10-10-10-|
|-------------------------------------------------|


C5
E S S S S S S S S S S S S E
|-----------------------------------------------|
|-----------------------------------------------|
|---------14-16p14----14-16h17p16p14-16p14------|
|-17---17----------17----------------------17---|
|-----------------------------------------------|
|-----------------------------------------------|
|
| E S S S S S S S S S S S S E
|-----------------------------------------------|
|----------7--8p=7-----7--8h10p=8p=7--8p=7------|
|--9----9-----------9-----------------------9---|
|-----------------------------------------------|
|-----------------------------------------------|
|-----------------------------------------------|
|
| PM--------------------------------------------
| S S S S S S S S S S S S S S S S
|-----------------------------------------------|
|-----------------------------------------------|
|-----------------------------------------------|
|-----------------------------------------------|
|--3-3--3--3--3--3--3--3--3--3--3--3--3--3--3-3-|
|-----------------------------------------------|


B5
S S S S S S S S S S S S Q
|----------------------------------------------|
|-15-15-15-15-13-13-13-13-12-12-12-12-10-------|
|----------------------------------------------|
|----------------------------------------------|
|----------------------------------------------|
|----------------------------------------------|
|
| S S S S S S S S S S S S Q
|----------------------------------------------|
|-12-12-12-12-10-10-10-10--8--8--8--8--7-------|
|----------------------------------------------|
|----------------------------------------------|
|----------------------------------------------|
|----------------------------------------------|
|
|--------------------------------------------|
| S S S S S S S S S S S S S S S S
|----------------------------------------------|
|----------------------------------------------|
|----------------------------------------------|
|----------------------------------------------|
|--2--2--2--2--2--2--2--2--2--2--2--2--2-2-2-2-|
|----------------------------------------------|


E5
E S S S S S S S S S S E E
|----------------------------------------------|
|-----------------------------------------15---|
|---------14-16-14----16-17-16-14--------------|
|-17---17----------17-------------17-17--------|
|----------------------------------------------|
|----------------------------------------------|
|
| E S S S S S S S S S S E E
|------------------------------------------7---|
|----------7--8p=7-----8-10--8--7--------------|
|--9----9-----------9--------------9--9--------|
|----------------------------------------------|
|----------------------------------------------|
|----------------------------------------------|
|
| PM--------------------------------------|
| S S S S S S S S S S S S S S S S
|----------------------------------------------|
|----------------------------------------------|
|----------------------------------------------|
|--9-------------------------------------------|
|--7-7--7--7--7--7--7--7--7--7--7--7--7-7--7-7-|
|----------------------------------------------|


G5
S S S S S S S S S S S S S S E
|-------------------------------------------------|
|-------------------------------------------------|
|-17-16-14----------14-16-17-16-14----14-16-------|
|----------17----17----------------17-------17----|
|-------------17----------------------------------|
|-------------------------------------------------|
|
| S S S S S S S S S S S S S S E
|-------------------------------------------------|
|--8--7-----------------7--8--7--------7--8-------|
|--------9--7-----7--9-----------9--7--------9----|
|--------------9----------------------------------|
|-------------------------------------------------|
|-------------------------------------------------|
|
| PM---------------------------------------|
| S S S S S S S S S S S S S S S S
|-------------------------------------------------|
|-------------------------------------------------|
|-------------------------------------------------|
|-12----------------------------------------------|
|-10-10-10-10-10-10-10-10-10-10-10-10-10-10-10-10-|
|-------------------------------------------------|


C5
E S S S S S S S S S S S S S S
|------------------------------------------------|
|---------------------------------------------15-|
|---------14h16p14----16h17p16p14----14-16-17----|
|-17---17----------17-------------17-------------|
|------------------------------------------------|
|------------------------------------------------|
|
| E S S S S S S S S S S S S S S
|----------------------------------------------7-|
|----------7--8--7-----8-10--8--7-----7--8-10----|
|--9----9-----------9--------------9-------------|
|------------------------------------------------|
|------------------------------------------------|
|------------------------------------------------|
|
| PM-------------------------------------------
| S S S S S S S S S S S S S S S S
|------------------------------------------------|
|------------------------------------------------|
|------------------------------------------------|
|--5---------------------------------------------|
|--3-3--3--3--3--3--3--3--3--3--3--3--3--3--3--3-|
|------------------------------------------------|


D5
S S S S S S S S S S S S Q
|------------------------------------------------|
|-17-17-17-17-19-19-19-19-17-17-17-17-[15]-------|
|------------------------------------------------|
|------------------------------------------------|
|------------------------------------------------|
|------------------------------------------------|
|
| S S S S S S S S S S S S Q
|--8--8--8--8-10-10-10-10--8--8--8--8--[7]-------|
|------------------------------------------------|
|------------------------------------------------|
|------------------------------------------------|
|------------------------------------------------|
|------------------------------------------------|
|
|----------------------------------------------|
| S S S S S S S S S S S S S S S S
|------------------------------------------------|
|------------------------------------------------|
|------------------------------------------------|
|-----------7-----------7-----------7------------|
|--5--5--5--5--5--5--5--5--5--5--5--5---5--5-5-5-|
|------------------------------------------------|


E5
E S S S S S S S S S S S S E
|-----------------------------------------------|
|-----------------------------------------------|
|---------14-16-14----14-16-17-16-14-16-14------|
|-17---17----------17----------------------17---|
|-----------------------------------------------|
|-----------------------------------------------|
|
| E S S S S S S S S S S S S E
|-----------------------------------------------|
|----------7--8--7-----7--8-10--8--7--8--7------|
|--9----9-----------9-----------------------9---|
|-----------------------------------------------|
|-----------------------------------------------|
|-----------------------------------------------|
|
| PM---------------------------------------|
| S S S S S S S S S S S S S S S S
|-----------------------------------------------|
|-----------------------------------------------|
|-----------------------------------------------|
|--9--------------------------------------------|
|--7-7--7--7--7--7--7--7--7--7--7--7--7--7--7-7-|
|-----------------------------------------------|


G5
E S S S S S S S S S S S S E
|-------------------------------------------------|
|----------------------------15-------------------|
|----------14-16-14----14-16----16-14-16-14-------|
|-17----17----------17----------------------17----|
|-------------------------------------------------|
|-------------------------------------------------|
|
| E S S S S S S S S S S S S E
|-----------------------------7-------------------|
|-----------7--8--7-----7--8-----8--7--8--7-------|
|--9-----9-----------9-----------------------9----|
|-------------------------------------------------|
|-------------------------------------------------|
|-------------------------------------------------|
|
| PM---------------------------------------|
| S S S S S S S S S S S S S S S S
|-------------------------------------------------|
|-------------------------------------------------|
|-------------------------------------------------|
|-12----------------------------------------------|
|-10-10-10-10-10-10-10-10-10-10-10-10-10-10-10-10-|
|-------------------------------------------------|


C5 B5
S S S S S S S S S S S S S S S S W W
|-------------------------------------------------|-------------|------|
|----------------------15-17-15-------------------|-------------|------|
|-17-16-14----14-16-17----------17-16-14----14-16-|-------------|------|
|----------17----------------------------17-------|-------------|------|
|-------------------------------------------------|-------------|------|
|-------------------------------------------------|-------------|------|
|
| S S S S S S S S S S S S S S S S W W
|-----------------------7--8--7-------------------|-------------|------|
|-10--8--7-----7--8-10----------10--8--7-----7--8-|-------------|------|
|-----------9-----------------------------9-------|-------------|------|
|-------------------------------------------------|-------------|------|
|-------------------------------------------------|-------------|------|
|-------------------------------------------------|-------------|------|
|
| PM---------------------------------------|
| S S S S S S S S S S S S S S S S q Q Q Q W
|-------------------------------------------------|-------------|------|
|-------------------------------------------------|-------------|------|
|--5----------------------------------------------|-------------|------|
|--5----------------------------------------------|-4-----------|------|
|--3--3--3--3--3--3--3--3--3--3--3--3--3--3--3--3-|-2-----------|------|
|-------------------------------------------------|-------------|------|


E5
Gtr I
S S S S S S S S S S S S S S S S
|-----------------------------------------|
|-12-12-0-0-13-13-0-0-12-12-0-0-13-13-0-0-|
|-----------------------------------------|
|-----------------------------------------|
|-----------------------------------------|
|-----------------------------------------|
|
| Gtr II
| S S S S S S S S S S S S S S S S
|--3--3-0-0--5--5-0-0--3--3-0-0--5--5-0-0-|
|-----------------------------------------|
|-----------------------------------------|
|-----------------------------------------|
|-----------------------------------------|
|-----------------------------------------|
|
| Gtr III
| PM--------------------------------------
| S S S S S S S S S S S S S S S S
|-----------------------------------------|
|-----------------------------------------|
|-----------------------------------------|
|--9--------------------------------------|
|--7--7-7-7--7--7-7-7--7--7-7-7--7--7-7-7-|
|-----------------------------------------|


S S S S S S S S S S S S S S S S
|-----------------------------------------|
|-12-12-0-0-13-13-0-0-12-12-0-0-13-13-0-0-|
|-----------------------------------------|
|-----------------------------------------|
|-----------------------------------------|
|-----------------------------------------|
|
| S S S S S S S S S S S S S S S S
|--3--3-0-0--5--5-0-0--3--3-0-0--5--5-0-0-|
|-----------------------------------------|
|-----------------------------------------|
|-----------------------------------------|
|-----------------------------------------|
|-----------------------------------------|
|
|---------------------------------------|
| S S S S S S S S S S S S S S S S
|-----------------------------------------|
|-----------------------------------------|
|-----------------------------------------|
|--9--------------9-----------------------|
|--7--7-7-7--7--7-7-7--7--7-7-7--7--7-7-7-|
|-----------------------------------------|


C5
S S S S S S S S S S S S S S S S
|-----------------------------------------|
|-12-12-0-0-13-13-0-0-12-12-0-0-13-13-0-0-|
|-----------------------------------------|
|-----------------------------------------|
|-----------------------------------------|
|-----------------------------------------|
|
| S S S S S S S S S S S S S S S S
|--3--3-0-0--5--5-0-0--3--3-0-0--5--5-0-0-|
|-----------------------------------------|
|-----------------------------------------|
|-----------------------------------------|
|-----------------------------------------|
|-----------------------------------------|
|
| PM--------------------------------------
| S S S S S S S S S S S S S S S S
|-----------------------------------------|
|-----------------------------------------|
|-----------------------------------------|
|--5--------------------------------------|
|--3--3-3-3--3--3-3-3--3--3-3-3--3--3-3-3-|
|-----------------------------------------|


S S S S S S S S S S S S S S S S
|-----------------------------------------|
|-12-12-0-0-13-13-0-0-12-12-0-0-13-13-0-0-|
|-----------------------------------------|
|-----------------------------------------|
|-----------------------------------------|
|-----------------------------------------|
|
| S S S S S S S S S S S S S S S S
|--3--3-0-0--5--5-0-0--3--3-0-0--5--5-0-0-|
|-----------------------------------------|
|-----------------------------------------|
|-----------------------------------------|
|-----------------------------------------|
|-----------------------------------------|
|
|---------------------------------------|
| S S S S S S S S S S S S S S S S
|-----------------------------------------|
|-----------------------------------------|
|-----------------------------------------|
|--5--------------------------------------|
|--3--3-3-3--3--3-3-3--3--3-3-3--3--3-3-3-|
|-----------------------------------------|


E5
S S S S S S S S S S S S S S S S
|-----------------------------------------|
|-12-12-0-0-13-13-0-0-12-12-0-0-13-13-0-0-|
|-----------------------------------------|
|-----------------------------------------|
|-----------------------------------------|
|-----------------------------------------|
|
| S S S S S S S S S S S S S S S S
|--3--3-0-0--5--5-0-0--3--3-0-0--5--5-0-0-|
|-----------------------------------------|
|-----------------------------------------|
|-----------------------------------------|
|-----------------------------------------|
|-----------------------------------------|
|
| PM--------------------------------------
| S S S S S S S S S S S S S S S S
|-----------------------------------------|
|-----------------------------------------|
|-----------------------------------------|
|--9--------------------------------------|
|--7--7-7-7--7--7-7-7--7--7-7-7--7--7-7-7-|
|-----------------------------------------|


S S S S S S S S S S S S S S S S
|-----------------------------------------|
|-12-12-0-0-13-13-0-0-12-12-0-0-13-13-0-0-|
|-----------------------------------------|
|-----------------------------------------|
|-----------------------------------------|
|-----------------------------------------|
|
| S S S S S S S S S S S S S S S S
|--3--3-0-0--5--5-0-0--3--3-0-0--5--5-0-0-|
|-----------------------------------------|
|-----------------------------------------|
|-----------------------------------------|
|-----------------------------------------|
|-----------------------------------------|
|
|---------------------------------------|
| S S S S S S S S S S S S S S S S
|-----------------------------------------|
|-----------------------------------------|
|-----------------------------------------|
|--9--------------9-----------------------|
|--7--7-7-7--7--7-7-7--7--7-7-7--7--7-7-7-|
|-----------------------------------------|


C5
S S S S S S S S S S S S S S S S
|-----------------------------------------|
|-12-12-0-0-13-13-0-0-12-12-0-0-13-13-0-0-|
|-----------------------------------------|
|-----------------------------------------|
|-----------------------------------------|
|-----------------------------------------|
|
| S S S S S S S S S S S S S S S S
|--3--3-0-0--5--5-0-0--3--3-0-0--5--5-0-0-|
|-----------------------------------------|
|-----------------------------------------|
|-----------------------------------------|
|-----------------------------------------|
|-----------------------------------------|
|
| PM--------------------------------------
| S S S S S S S S S S S S S S S S
|-----------------------------------------|
|-----------------------------------------|
|-----------------------------------------|
|--5--------------------------------------|
|--3--3-3-3--3--3-3-3--3--3-3-3--3--3-3-3-|
|-----------------------------------------|


S S S S S S S S S S S S S S S S
|-----------------------------------------|
|-12-12-0-0-13-13-0-0-12-12-0-0-13-13-0-0-|
|-----------------------------------------|
|-----------------------------------------|
|-----------------------------------------|
|-----------------------------------------|
|
| S S S S S S S S S S S S S S S S
|--3--3-0-0--5--5-0-0--3--3-0-0--5--5-0-0-|
|-----------------------------------------|
|-----------------------------------------|
|-----------------------------------------|
|-----------------------------------------|
|-----------------------------------------|
|
|---------------------------------------|
| S S S S S S S S S S S S S S S S
|-----------------------------------------|
|-----------------------------------------|
|-----------------------------------------|
|--5--------------5-----------------------|
|--3--3-3-3--3--3-3-3--3--3-3-3--3--3-3-3-|
|-----------------------------------------|


A5
S S S S S S S S S S S S S S S S
|-----------------------------------------|
|-12-12-0-0-13-13-0-0-12-12-0-0-13-13-0-0-|
|-----------------------------------------|
|-----------------------------------------|
|-----------------------------------------|
|-----------------------------------------|
|
| S S S S S S S S S S S S S S S S
|--3--3-0-0--5--5-0-0--3--3-0-0--5--5-0-0-|
|-----------------------------------------|
|-----------------------------------------|
|-----------------------------------------|
|-----------------------------------------|
|-----------------------------------------|
|
| PM--------------------------------------
| S S S S S S S S S S S S S S S S
|-----------------------------------------|
|-----------------------------------------|
|-----------------------------------------|
|-----------------------------------------|
|--7--------------------------------------|
|--5--5-5-5--5--5-5-5--5--5-5-5--5--5-5-5-|


S S S S S S S S S S S S S S S S
|-----------------------------------------|
|-12-12-0-0-13-13-0-0-12-12-0-0-13-13-0-0-|
|-----------------------------------------|
|-----------------------------------------|
|-----------------------------------------|
|-----------------------------------------|
|
| S S S S S S S S S S S S S S S S
|--3--3-0-0--5--5-0-0--3--3-0-0--5--5-0-0-|
|-----------------------------------------|
|-----------------------------------------|
|-----------------------------------------|
|-----------------------------------------|
|-----------------------------------------|
|
|---------------------------------------|
| S S S S S S S S S S S S S S S S
|-----------------------------------------|
|-----------------------------------------|
|-----------------------------------------|
|-----------------------------------------|
|--7--------------------------------------|
|--5--5-5-5--5--5-5-5--5--5-5-5--5--5-5-5-|


E5
S S S S S S S S S S S S S S S S
|-----------------------------------------|
|-12-12-0-0-13-13-0-0-12-12-0-0-13-13-0-0-|
|-----------------------------------------|
|-----------------------------------------|
|-----------------------------------------|
|-----------------------------------------|
|
| S S S S S S S S S S S S S S S S
|--3--3-0-0--5--5-0-0--3--3-0-0--5--5-0-0-|
|-----------------------------------------|
|-----------------------------------------|
|-----------------------------------------|
|-----------------------------------------|
|-----------------------------------------|
|
| PM--------------------------------------
| S S S S S S S S S S S S S S S S
|-----------------------------------------|
|-----------------------------------------|
|-----------------------------------------|
|--9--------------------------------------|
|--7--7-7-7--7--7-7-7--7--7-7-7--7--7-7-7-|
|-----------------------------------------|


S S S S S S S S S S S S S S S S
|-----------------------------------------|
|-12-12-0-0-13-13-0-0-12-12-0-0-13-13-0-0-|
|-----------------------------------------|
|-----------------------------------------|
|-----------------------------------------|
|-----------------------------------------|
|
| S S S S S S S S S S S S S S S S
|--3--3-0-0--5--5-0-0--3--3-0-0--5--5-0-0-|
|-----------------------------------------|
|-----------------------------------------|
|-----------------------------------------|
|-----------------------------------------|
|-----------------------------------------|
|
|---------------------------------------|
| S S S S S S S S S S S S S S S S
|-----------------------------------------|
|-----------------------------------------|
|-----------------------------------------|
|--9--------------------------------------|
|--7--7-7-7--7--7-7-7--7--7-7-7--7--7-7-7-|
|-----------------------------------------|


C5
S S S S S S S S S S S S S S S S
|-----------------------------------------|
|-12-12-0-0-13-13-0-0-12-12-0-0-13-13-0-0-|
|-----------------------------------------|
|-----------------------------------------|
|-----------------------------------------|
|-----------------------------------------|
|
| S S S S S S S S S S S S S S S S
|--3--3-0-0--5--5-0-0--3--3-0-0--5--5-0-0-|
|-----------------------------------------|
|-----------------------------------------|
|-----------------------------------------|
|-----------------------------------------|
|-----------------------------------------|
|
| PM--------------------------------------
| S S S S S S S S S S S S S S S S
|-----------------------------------------|
|-----------------------------------------|
|-----------------------------------------|
|--5--------------------------------------|
|--3--3-3-3--3--3-3-3--3--3-3-3--3--3-3-3-|
|-----------------------------------------|


S S S S S S S S S S S S S S S S
|-----------------------------------------|
|-12-12-0-0-13-13-0-0-12-12-0-0-13-13-0-0-|
|-----------------------------------------|
|-----------------------------------------|
|-----------------------------------------|
|-----------------------------------------|
|
| S S S S S S S S S S S S S S S S
|--3--3-0-0--5--5-0-0--3--3-0-0--5--5-0-0-|
|-----------------------------------------|
|-----------------------------------------|
|-----------------------------------------|
|-----------------------------------------|
|-----------------------------------------|
|
|---------------------------------------|
| S S S S S S S S S S S S S S S S
|-----------------------------------------|
|-----------------------------------------|
|-----------------------------------------|
|--5--------------5-----------------------|
|--3--3-3-3--3--3-3-3--3--3-3-3--3--3-3-3-|
|-----------------------------------------|


B5
S S S S S S S S S S S S S S S S
|-----------------------------------------|
|-12-12-0-0-13-13-0-0-12-12-0-0-13-13-0-0-|
|-----------------------------------------|
|-----------------------------------------|
|-----------------------------------------|
|-----------------------------------------|
|
| S S S S S S S S S S S S S S S S
|--3--3-0-0--5--5-0-0--3--3-0-0--5--5-0-0-|
|-----------------------------------------|
|-----------------------------------------|
|-----------------------------------------|
|-----------------------------------------|
|-----------------------------------------|
|
| PM-----------------------------------|
| S S S S S S S S S S S S S S S S
|-----------------------------------------|
|-----------------------------------------|
|-----------------------------------------|
|--4--------------------------------------|
|--2--2-2-2--2--2-2-2--2--2-2-2--2--2-2-2-|
|-----------------------------------------|


S S S S S S S S S S S S S S S S
|---------------------------------------|
|-7-10-7-0-8-11-8-0-9-12-9-0-10-13-10-0-|
|---------------------------------------|
|---------------------------------------|
|---------------------------------------|
|---------------------------------------|
|
| S S S S S S S S S S S S S S S S
|---------------------------------------|
|-7-10-7-0-8-11-8-0-9-12-9-0-10-13-10-0-|
|---------------------------------------|
|---------------------------------------|
|---------------------------------------|
|---------------------------------------|
|
| q Q Q Q
|---------------------------------------|
|---------------------------------------|
|---------------------------------------|
|-4-------------------------------------|
|-2-------------------------------------|
|---------------------------------------|


B5
~~~~
H. Q +H +Q Q
|-----------------------------|---------------------||
|-[12]---------------[12]b14r=|=(12)------(12)-----||
|-----------------------------|---------------------||
|-----------------------------|---------------------||
|-----------------------------|---------------------||
|-----------------------------|---------------------||
|
| Q Q E E +Q +Q Q Q Q
|-----------------------------|---------------------||
|-----------------------------|---------------------||
|------------[10]b12r(10)-----|-(10)---------------||
|-----------------------------|---------------------||
|-----------------------------|---------------------||
|-----------------------------|---------------------||
|
| W q q Q Q
|-----------------------------|---------------------||
|-----------------------------|---------------------||
|-----------------------------|---4----4------------||
|-----------------------------|---4----4------------||
|-----------------------------|---2----2------------||
|-----------------------------|---------------------||


Verse
Em
Gtrs II, III
PM--------------------------------------------------------------|
S S S S S S S S S S S S S S S S S S S S S S S S S S S S S S S S
|---------------------------------|---------------------------------|
|---------------------------------|---------------------------------|
|---------------------------------|---------------------------------|
|-5-------------------------------|-5-----------5-------------------|
|-7-7-7-7-7-7-7-7-7-7-7-7-7-7-7-7-|-7-7-7-7-7-7-7-7-7-7-7-7-7-7-7-7-|
|---------------------------------|---------------------------------|


Em D C
PM----------------------------|
S S S S S S S S S S S S S S S S Q E H +E
|---------------------------------|---------------|
|---------------------------------|---------------|
|---------------------------------|---------------|
|-5-------------------------------|-5--4-2----(2)-|
|-7-7-7-7-7-7-7-7-7-7-7-7-7-7-7-7-|-7--5-3----(3)-|
|---------------------------------|---------------|


Em
PM--------------------------------------------------------------|
S S S S S S S S S S S S S S S S S S S S S S S S S S S S S S S S
|---------------------------------|---------------------------------|
|---------------------------------|---------------------------------|
|---------------------------------|---------------------------------|
|-5-------------------------------|-5-----------5-------------------|
|-7-7-7-7-7-7-7-7-7-7-7-7-7-7-7-7-|-7-7-7-7-7-7-7-7-7-7-7-7-7-7-7-7-|
|---------------------------------|---------------------------------|


C D
PM----------------------------|
S S S S S S S S S S S S S S S S Q E H +E
|---------------------------------|---------------|
|---------------------------------|---------------|
|---------------------------------|---------------|
|-5-------------------------------|-2--2-4----(4)-|
|-7-7-7-7-7-7-7-7-7-7-7-7-7-7-7-7-|-3--3-5----(5)-|
|---------------------------------|---------------|


E5
Gtr I
S S S S S S S S S S S S S S S S
|-----------------------------------------|
|-12-12-0-0-13-13-0-0-12-12-0-0-13-13-0-0-|
|-----------------------------------------|
|-----------------------------------------|
|-----------------------------------------|
|-----------------------------------------|
|
| Gtr II
| S S S S S S S S S S S S S S S S
|--3--3-0-0--5--5-0-0--3--3-0-0--5--5-0-0-|
|-----------------------------------------|
|-----------------------------------------|
|-----------------------------------------|
|-----------------------------------------|
|-----------------------------------------|
|
| Gtr III
| PM--------------------------------------
| S S S S S S S S S S S S S S S S
|-----------------------------------------|
|-----------------------------------------|
|-----------------------------------------|
|--9--------------------------------------|
|--7--7-7-7--7--7-7-7--7--7-7-7--7--7-7-7-|
|-----------------------------------------|


S S S S S S S S S S S S S S S S
|-----------------------------------------|
|-12-12-0-0-13-13-0-0-12-12-0-0-13-13-0-0-|
|-----------------------------------------|
|-----------------------------------------|
|-----------------------------------------|
|-----------------------------------------|
|
| S S S S S S S S S S S S S S S S
|--3--3-0-0--5--5-0-0--3--3-0-0--5--5-0-0-|
|-----------------------------------------|
|-----------------------------------------|
|-----------------------------------------|
|-----------------------------------------|
|-----------------------------------------|
|
|---------------------------------------|
| S S S S S S S S S S S S S S S S
|-----------------------------------------|
|-----------------------------------------|
|-----------------------------------------|
|--9--------------9-----------------------|
|--7--7-7-7--7--7-7-7--7--7-7-7--7--7-7-7-|
|-----------------------------------------|


C5
S S S S S S S S S S S S S S S S
|-----------------------------------------|
|-12-12-0-0-13-13-0-0-12-12-0-0-13-13-0-0-|
|-----------------------------------------|
|-----------------------------------------|
|-----------------------------------------|
|-----------------------------------------|
|
| S S S S S S S S S S S S S S S S
|--3--3-0-0--5--5-0-0--3--3-0-0--5--5-0-0-|
|-----------------------------------------|
|-----------------------------------------|
|-----------------------------------------|
|-----------------------------------------|
|-----------------------------------------|
|
| PM--------------------------------|
| S S S S S S S S S S S S S S S S
|-----------------------------------------|
|-----------------------------------------|
|-----------------------------------------|
|--5--------------------------------------|
|--3--3-3-3--3--3-3-3--3--3-3-3--3--3-3-3-|
|-----------------------------------------|


S S S S S S S S S S S S S S S S
|-----------------------------------------|
|-12-12-0-0-13-13-0-0-12-12-0-0-13-13-0-0-|
|-----------------------------------------|
|-----------------------------------------|
|-----------------------------------------|
|-----------------------------------------|
|
| S S S S S S S S S S S S S S S S
|--3--3-0-0--5--5-0-0--3--3-0-0--5--5-0-0-|
|-----------------------------------------|
|-----------------------------------------|
|-----------------------------------------|
|-----------------------------------------|
|-----------------------------------------|
|
| PM--------------------------------|
| S S S S S S S S S S S S S S S S
|-----------------------------------------|
|-----------------------------------------|
|-----------------------------------------|
|--5--------------5-----------------------|
|--3--3-3-3--3--3-3-3--3--3-3-3--3--3-3-3-|
|-----------------------------------------|


E5
S S S S S S S S S S S S S S S S
|-----------------------------------------|
|-12-12-0-0-13-13-0-0-12-12-0-0-13-13-0-0-|
|-----------------------------------------|
|-----------------------------------------|
|-----------------------------------------|
|-----------------------------------------|
|
| S S S S S S S S S S S S S S S S
|--3--3-0-0--5--5-0-0--3--3-0-0--5--5-0-0-|
|-----------------------------------------|
|-----------------------------------------|
|-----------------------------------------|
|-----------------------------------------|
|-----------------------------------------|
|
| PM--------------------------------|
| S S S S S S S S S S S S S S S S
|-----------------------------------------|
|-----------------------------------------|
|-----------------------------------------|
|--9--------------------------------------|
|--7--7-7-7--7--7-7-7--7--7-7-7--7--7-7-7-|
|-----------------------------------------|


S S S S S S S S S S S S S S S S
|-----------------------------------------|
|-12-12-0-0-13-13-0-0-12-12-0-0-13-13-0-0-|
|-----------------------------------------|
|-----------------------------------------|
|-----------------------------------------|
|-----------------------------------------|
|
| S S S S S S S S S S S S S S S S
|--3--3-0-0--5--5-0-0--3--3-0-0--5--5-0-0-|
|-----------------------------------------|
|-----------------------------------------|
|-----------------------------------------|
|-----------------------------------------|
|-----------------------------------------|
|
| PM--------------------------------|
| S S S S S S S S S S S S S S S S
|-----------------------------------------|
|-----------------------------------------|
|-----------------------------------------|
|--9--------------9-----------------------|
|--7--7-7-7--7--7-7-7--7--7-7-7--7--7-7-7-|
|-----------------------------------------|


C5
S S S S S S S S S S S S S S S S
|-----------------------------------------|
|-12-12-0-0-13-13-0-0-12-12-0-0-13-13-0-0-|
|-----------------------------------------|
|-----------------------------------------|
|-----------------------------------------|
|-----------------------------------------|
|
| S S S S S S S S S S S S S S S S
|--3--3-0-0--5--5-0-0--3--3-0-0--5--5-0-0-|
|-----------------------------------------|
|-----------------------------------------|
|-----------------------------------------|
|-----------------------------------------|
|-----------------------------------------|
|
| PM-----------------------------------
| S S S S S S S S S S S S S S S S
|-----------------------------------------|
|-----------------------------------------|
|-----------------------------------------|
|--5--------------------------------------|
|--3--3-3-3--3--3-3-3--3--3-3-3--3--3-3-3-|
|-----------------------------------------|


B5
~~~~
W
|------------------------------------||
|-[14]-------------------------------||
|------------------------------------||
|------------------------------------||
|------------------------------------||
|------------------------------------||
|
| ~~~~
| W
|------------------------------------||
|------------------------------------||
|-[14]-------------------------------||
|------------------------------------||
|------------------------------------||
|------------------------------------||
|
|----------------------------------|
| S S S S S S S S S S S S S S S S
|------------------------------------||
|------------------------------------||
|------------------------------------||
|---4------------4-------------------||
|---2--2-2-2-2-2-2-2-2-2-2-2-2-2-2-2-||
|------------------------------------||


Verse
Em
Gtrs II, III
PM--------------------------------------------------------------|
S S S S S S S S S S S S S S S S S S S S S S S S S S S S S S S S
|---------------------------------|---------------------------------|
|---------------------------------|---------------------------------|
|---------------------------------|---------------------------------|
|-5-------------------------------|-5-----------5-------------------|
|-7-7-7-7-7-7-7-7-7-7-7-7-7-7-7-7-|-7-7-7-7-7-7-7-7-7-7-7-7-7-7-7-7-|
|---------------------------------|---------------------------------|


Em D C
PM----------------------------|
S S S S S S S S S S S S S S S S Q E H +E
|---------------------------------|---------------|
|---------------------------------|---------------|
|---------------------------------|---------------|
|-5-------------------------------|-5--4-2----(2)-|
|-7-7-7-7-7-7-7-7-7-7-7-7-7-7-7-7-|-7--5-3----(3)-|
|---------------------------------|---------------|


Em
PM--------------------------------------------------------------|
S S S S S S S S S S S S S S S S S S S S S S S S S S S S S S S S
|---------------------------------|---------------------------------|
|---------------------------------|---------------------------------|
|---------------------------------|---------------------------------|
|-5-------------------------------|-5-----------5-------------------|
|-7-7-7-7-7-7-7-7-7-7-7-7-7-7-7-7-|-7-7-7-7-7-7-7-7-7-7-7-7-7-7-7-7-|
|---------------------------------|---------------------------------|


C D
PM----------------------------|
S S S S S S S S S S S S S S S S Q E H +E
|---------------------------------|---------------||
|---------------------------------|---------------||
|---------------------------------|---------------||
|-5-------------------------------|-2--2-4----(4)-||
|-7-7-7-7-7-7-7-7-7-7-7-7-7-7-7-7-|-3--3-5----(5)-||
|---------------------------------|---------------||


Prechorus
A5 C5
Gtr I
Q. E Q E E Q. E Q E E
|--------------------|-------------------|
|----------------7-8-|---------7-8---7-8-|
|---------7--9-------|--9----------------|
|-10-----------------|-------------------|
|--------------------|-------------------|
|--------------------|-------------------|
|
| Gtr II
| Q. E Q E E Q. E Q E E
|--------------------|-------------------|
|--------------------|-------------------|
|----------------7-9-|---------7-9---7-9-|
|--7------9-10-------|-10----------------|
|--------------------|-------------------|
|--------------------|-------------------|
|
| Gtr III
| PM| PM| PM PM| PM| PM
| E E E E E E E E E E E E E E E E
|--------------------|-------------------|
|--------------------|-------------------|
|--------------------|--5------5-----5---|
|--7------7------7---|--5------5-----5---|
|--7------7------7---|--3--3-3-3-3-3-3-3-|
|--5--5-5-5--5-5-5-5-|-------------------|


D5 G5
Q. Q. Q E E E E E E Q
|---------------------|--------------------|
|---------8------10---|--8-----------------|
|--9------------------|-----9-7--9--7---7--|
|---------------------|---------------9----|
|---------------------|--------------------|
|---------------------|--------------------|
|
| Q. Q. Q E E E E E E Q
|---------------------|--------------------|
|---------------------|--------------------|
|---------7-------9---|--7-----------------|
|-10------------------|----10-9-10----7-9--|
|---------------------|------------10------|
|---------------------|--------------------|
|
| PM| PM| PM
| E E E E E E E E W
|---------------------|--------------------|
|---------------------|--------------------|
|--7------7-------7---|-12-----------------|
|--7------7-------7---|-12-----------------|
|--5--5-5-5--5-5--5-5-|-10-----------------|
|---------------------|--------------------|


A5 C5
Q. E Q E E Q. E Q E E
|--------------------|-------------------|
|----------------7-8-|---------7-8---7-8-|
|---------7--9-------|--9----------------|
|-10-----------------|-------------------|
|--------------------|-------------------|
|--------------------|-------------------|
|
| Q. E Q E E Q. E Q E E
|--------------------|-------------------|
|--------------------|-------------------|
|----------------7-9-|---------7-9---7-9-|
|--7------9-10-------|-10----------------|
|--------------------|-------------------|
|--------------------|-------------------|
|
| PM| PM| PM PM| PM
| E E E E E E E E E E E E E E E E
|--------------------|-------------------|
|--------------------|-------------------|
|--------------------|--5------5-----5---|
|--7------7------7---|--5------5-----5---|
|--7------7------7---|--3--3-3-3-3-3-3-3-|
|--5--5-5-5--5-5-5-5-|-------------------|


G5 D5
Q. Q. Q E E E E E E E E
|--7------------------------|--------------------|
|-----------10---------8----|-7-----------8-10---|
|---------------------------|----9-7-9-7-------7-|
|---------------------------|--------------------|
|---------------------------|--------------------|
|---------------------------|--------------------|
|
| Q. Q. Q E E E E E E E E
|---------------------------|--------------------|
|--8------------------------|--------------------|
|-----------11---------9----|-7--------------7---|
|---------------------------|---10-9-7-9-10----7-|
|---------------------------|--------------------|
|---------------------------|--------------------|
|
| PM| PM| PM
| E E E E E E E E W
|---------------------------|--------------------|
|---------------------------|--------------------|
|-12--------12--------12----|-7------------------|
|-12--------12--------12----|-7------------------|
|-10--10-10-10--10-10-10-10-|-5------------------|
|---------------------------|--------------------|


G C
W +W W +W
|----------|------------|----------|--------|
|----------|------------|----------|--------|
|-4--------|-(4)--------|-5--------|-(5)----|
|-5--------|-(5)--------|-5--------|-(5)----|
|-5--------|-(5)--------|-3--------|-(3)----|
|-3--------|-(3)--------|----------|--------|


D C
W +W W +W
|----------|------------|----------|--------|
|----------|------------|----------|--------|
|-7--------|-(7)--------|-5--------|-(5)----|
|-7--------|-(7)--------|-5--------|-(5)----|
|-5--------|-(5)--------|-3--------|-(3)----|
|----------|------------|----------|--------|


B5
PM--------------------------------------------------------------|
S S S S S S S S S S S S S S S S S S S S S S S S S S S S S S S S
|---------------------------------|---------------------------------|
|---------------------------------|---------------------------------|
|---------------------------------|---------------------------------|
|-4-----------4-----------4-------|-4-----------4-----------4-------|
|-2-2-2-2-2-2-2-2-2-2-2-2-2-2-2-2-|-2-2-2-2-2-2-2-2-2-2-2-2-2-2-2-2-|
|---------------------------------|---------------------------------|


C5 C5
PM----------------------------|
S S S S S S S S S S S S S S S S W
|---------------------------------|------|
|---------------------------------|------|
|---------------------------------|------|
|-5-----------5-----------5-------|-5----|
|-3-3-3-3-3-3-3-3-3-3-3-3-3-3-3-3-|-3----|
|---------------------------------|------|


C5 C5
PM--------------------------------------------------------------|
S S S S S S S S S S S S S S S S S S S S S S S S S S S S S S S S
|---------------------------------|---------------------------------|
|---------------------------------|---------------------------------|
|---------------------------------|---------------------------------|
|-5-----------5-----------5-------|-5-----------5-----------5-------|
|-3-3-3-3-3-3-3-3-3-3-3-3-3-3-3-3-|-3-3-3-3-3-3-3-3-3-3-3-3-3-3-3-3-|
|---------------------------------|---------------------------------|


D5 D5
PM----------------------------|
S S S S S S S S S S S S S S S S q Q Q Q
|---------------------------------|-------------||
|---------------------------------|-------------||
|---------------------------------|-7-----------||
|-7-----

ACORDES PARA GUITARRA

PIANO UKELELE


COMENTARIOS

Aún no hay comentarios,

¡escribe el primero!

Escribe una pregunta, duda o comentario sobre esta canción, te responderemos a la brevedad.

Las más tocadas de DragonForce

Toca una Canción al Azar de DragonForce