as HEROES OF OUR TIME | DragonForce | Acordes

Heroes Of Our Time

DragonForce

Acordes

Ultra Beatdown (2008)
Subida por ErnestSep


Más Versiones
Ver. 2 Ver. 3

Cambiar Cifrado
Americano Latino

Cambiar Tonalidad
-1 +1

Partir Pantalla Imprimir FAQ

+A
-A


Ver solo la LETRA
Lead 1

E E E E E E E E
E||--5--5--5--8--8--6--5-----|
B||-----------------------8--|
G||--------------------------|
D||--------------------------|
A||--------------------------|
E||--------------------------|

E S S E E E E E E E E E E E E E E
-----------------------------|--5--5--5--6--6--5--------|
--8--8-8-8--10--10--8--6--3--|--------------------8--6--|
-----------------------------|--------------------------|
-----------------------------|--------------------------|
-----------------------------|--------------------------|
-----------------------------|--------------------------|

S S S S E E Q Q E E E E E E E E
----------------------------------|--5--5--5--8--8--6--5-----|
--11-11-11-10-8--6--/10----8----|-----------------------8--|
----------------------------------|--------------------------|
----------------------------------|--------------------------|
----------------------------------|--------------------------|
----------------------------------|--------------------------|

/6
E S S E E E E E E E S S E E E E E E W
-----------------------------|--8--8-8-8--5--6--8--6--5--|--15----------------|
--8--8-8-8--10--10--8--6--3--|---------------------------|--------------------|
-----------------------------|---------------------------|--------------------|
-----------------------------|---------------------------|--------------------|
-----------------------------|---------------------------|--------------------|
-----------------------------|---------------------------|--------------------|

S S S S S S S S S S S S S S S S
--13----------------------------------------------|
-----15----------------15-18-15----15-18-15----15-|
--------14----------14----------14----------14----|
-----------15-12-15-------------------------------|
--------------------------------------------------|
--------------------------------------------------|

1/
S S S S S S S S H
--13----------------------22--------|
-----15----------------15-----------|
--------14----------14--------------|
-----------15-12-15-----------------|
------------------------------------|
------------------------------------|

/2
S S S S S S S S S S S S S S S S W
--17-17-13-13-15-15-12-12-13-13-10-10-12-12-8-8-|--15----------------|
------------------------------------------------|--------------------|
------------------------------------------------|--------------------|
------------------------------------------------|--------------------|
------------------------------------------------|--------------------|
------------------------------------------------|--------------------|

S S S S S S S S S S S S S S S S
--13----------------------------------------------|
-----15----------------15-18-15----15-18-15----15-|
--------14----------14----------14----------14----|
-----------15-12-15-------------------------------|
--------------------------------------------------|
--------------------------------------------------|

2
S S S S S S S S H E E E E E E Q
--13----------------------13--------|-------------------------------|
-----15----------------15-----------|--/15--------/13--------/10----|
--------14----------14--------------|-------------------------------|
-----------15-12-15-----------------|-------------------------------|
------------------------------------|-------------------------------|
------------------------------------|-------------------------------|

E E E E E E Q
------------------------------|
--13--15-----10-----8~--L~----|
------------------------------|
------------------------------|
------------------------------|
------------------------------|

S S S S S S S S S S S S S S S S
--20-17-13-17-------------------------------------|
--------------20-17-13-17-------------------------|
--------------------------19-15-12-15-------------|
--------------------------------------19-15-12-15-|
--------------------------------------------------|
--------------------------------------------------|

S S S S S S S S S S S S Q
--------------------------------------20pbr----|
-----------------------------------------------|
--------------------------19-15-12-15----------|
--------------19-15-12-15----------------------|
--19-15-12-15----------------------------------|
-----------------------------------------------|

-/2
S S S S S S S S S S S S S S S S W
--20-17-15-13-17-15-13-12-15-13-12-10-13-12-10-8-|--20----------------|
-------------------------------------------------|--------------------|
-------------------------------------------------|--------------------|
-------------------------------------------------|--------------------|
-------------------------------------------------|--------------------|
-------------------------------------------------|--------------------|

S S S S S S S S S S S S Q Q Q Q Q
--13-12-10-8-6-5-3-5-6-8-10-12-22~----|--/22----/13----/10----/5----|
--------------------------------------|---------------------------------|
--------------------------------------|---------------------------------|
--------------------------------------|---------------------------------|
--------------------------------------|---------------------------------|
--------------------------------------|---------------------------------|

/2
W W
--5----------------|--L----------------|
-------------------|-------------------|
-------------------|-------------------|
-------------------|-------------------|
-------------------|-------------------|
-------------------|-------------------|

|--3--| |--3--| |---3--| |---3--|
E E E E E E E E E E E E
-----------------------------------------|
---------------------------8--10--8------|
--7--7--7--7--7--7--7--10------------10--|
-----------------------------------------|
-----------------------------------------|
-----------------------------------------|

|--3--| |---3--| |---3---| |---3--|
E E E E E E E E E E E E
--------------------------------------------|
----------------------8--10--11--10--8------|
--7--7--7--10--7--10--------------------10--|
--------------------------------------------|
--------------------------------------------|
--------------------------------------------|

|--3--| |--3--| |---3--| |---3--|
E E E E E E E E E E E E
-----------------------------------------|
---------------------------8--10--8------|
--7--7--7--7--7--7--7--10------------10--|
-----------------------------------------|
-----------------------------------------|
-----------------------------------------|

|--3--| |---3--| |---3---| |---3--|
E E E E E E E E E E E E
--------------------------------------------|
----------------------8--10--11--10--8------|
--7--7--7--10--7--10--------------------10--|
--------------------------------------------|
--------------------------------------------|
--------------------------------------------|

|--3--| |--3--| |---3--| |---3--|
E E E E E E E E E E E E
-----------------------------------------|
---------------------------8--10--8------|
--7--7--7--7--7--7--7--10------------10--|
-----------------------------------------|
-----------------------------------------|
-----------------------------------------|

|--3--| |---3--| |---3---| |---3--|
E E E E E E E E E E E E
--------------------------------------------|
----------------------8--10--11--10--8------|
--7--7--7--10--7--10--------------------10--|
--------------------------------------------|
--------------------------------------------|
--------------------------------------------|

|--3--| |--3--| |---3--| |---3--|
E E E E E E E E E E E E
-----------------------------------------|
---------------------------8--10--8------|
--7--7--7--7--7--7--7--10------------10--|
-----------------------------------------|
-----------------------------------------|
-----------------------------------------|

|--3--| |---3--| |---3---| |---3--|
E E E E E E E E E E E E
--------------------------------------------|
----------------------8--10--11--10--8------|
--7--7--7--10--7--10--------------------10--|
--------------------------------------------|
--------------------------------------------|
--------------------------------------------|

|--3--| |--3--| |--3--| |--3--|
E E E E E E E E E E E E W
--5-----------------3-----------------|--13~----------------|
-------6-----------6-------5-----------5--|-----------------------|
----------5-----5-------------5-----5-----|-----------------------|
-------------7-------------------5--------|-----------------------|
------------------------------------------|-----------------------|
------------------------------------------|-----------------------|

E E E E E E E E E E E E E E E E E E E E E E E
--3-----------------------|--------------------------|-----------------------|
-----5--3--1--3--5--3-----|--------------------------|-----------------------|
-----------------------7--|-----5--7-----5--7-----5--|--7-----5--7-----5--7--|
--------------------------|--7--------7--------7-----|-----7--------7--------|
--------------------------|--------------------------|-----------------------|
--------------------------|--------------------------|-----------------------|

-----||
-----||
-----||
-----||
-----||
-----||

Duration Legend
---------------
W - whole
H - half
Q - quarter
E - 8th
S - 16th
T - 32nd
X - 64th
. - note dotted
|-n-| - n-tuplets

Tablature Legend
----------------
L - tied note
x - dead note
g - grace note
(n) - ghost note
> - accentuded note
NH - natural harmonic
AH - artificial harmonic
TH - tapped harmonic
SH - semi harmonic
PH - pitch harmonic
h - hammer on
p - pull off
b - bend
br - bendRelease
pb - preBend
pbr - preBendRelease
brb - bendReleaseBend

/ - tremolo bar dip

- tremolo bar dive
-/n - tremolo bar Release up
/n - tremolo bar inverted dip
/n - tremolo bar return
-
- tremolo bar Release down
S - shift slide
s - legato slide
/ - slide into from below or out of upwards
- slide into from above or out of downwards
~ - vibrato
W - wide vibrato
tr - trill
TP - tremolo picking
T - tapping
S - slap
P - pop
< - fade in
^ - brush up
v - brush down

bom,postei a intro,se alguma alma caridosa tiver o verso,chorus etc,por favor,
posta pq eu to fazendo de td pra toca essa musica(vejo se arranjo mais coisa,mas kem souber
de algo...)

NUEVO FORO DE MÚSICA

¿Tienes alguna duda, consulta, pregunta, consejo o algo para compartir sobre esta canción?

¡Puedes abrir un hilo en el FORO para que la comunidad te ayude! Hacer una pregunta

ACORDES PARA GUITARRA

PIANO UKELELE


Las más tocadas de DragonForce