El amor es sólo palabra

Dúo Romance

Acordes

Subida por Gnolaumcervantes


Más Versiones
Ver. 2

Cambiar Cifrado
Americano Latino

Cambiar Tonalidad
-1 +1

Partir Pantalla Imprimir FAQ

+A
-A


Ver solo la LETRA
Intro

Aquí arpegia estas notas Bb F C Dm, sobre el arpegio tengo ciertas dudas
Pero le puse como punteo

Bb F C Dm
e.-7-8-10-7-8-10--5-7-8-5-7-8--8-10-12-8-10-12--10-10-10- x2

x3
¡-----------------¡
Bb F C Dm C Dm
e.-7-8-10-7-8-10--5-7-8-5-7-8--8-10-12-8-10-12----10-10-8-8-12-10-10-

Dm C Dm Dm Bb C Dm
e.--------888-8/6-6-6/5-5.-5/3-3/1-1.-1/10-10-10-8-8/6-6-6-5-
B.-7/10-10---------------------------------------------------

Bb C Dm F Gm
e.-------5-8-8/10-10-10-10-8-8-8.-131313-13-12-10---------------
B.----5-8----------------------------------------10.-8-6-8.-6-8.
G.-5-7----------------------------------------------------------

A7
e.-----------------
B.-6-8.-8-10-11-10-
G.-----------------

Dm C Dm
Nunca pensé en amar
Bb C Dm
ahora lo siento cerca a mi
Bb C F Dm
pienso que jamas podra esto terminar
Gm A7
este amor que hay entre tu y yo

Dm C Dm
después de lo que paso
Bb C Dm
no se que pensar de nuestro amor
Bb C F Dm
solo yo se que una palabra es
Gm A7
nuestro amor que termino aqui


Dm Bb Dm
Mírame y piensa en mi
Bb C Dm
No quiero que me veas tu llorar
Dm Bb Dm
mírame y piensa que
Bb C Dm
Todo lo que hubo se acabo
Bb C Dm
oh noooo oh oh ooooooh


Instrumental aun no la tengo exacto

Dm C Dm Dm Bb C Dm
e.--------888-8/6-6-6/5-5.-5/3-3/1-1.-1/10-10-10-8-8/6-6-6-5-
B.-7/10-10---------------------------------------------------

Bb C Dm F Gm
e.-------5-8-8/10-10-10-10-8-8-8.-131313-13-12-10--------------------
B.----5-8----------------------------------------10.-8-6-8.-6-8.-6-8.
G.-5-7---------------------------------------------------------------

A7
e.-----------------
B.-6-8.-8-10-11-10-
G.-----------------


Dm Bb Dm
Mírame y piensa en mi
Bb C Dm
No quiero que me veas tu llorar
Dm Bb Dm
mírame y piensa que
Bb C Dm
Todo lo que hubo se acabo
Bb C Dm
oh noooo oh oh ooooooh

Bb F C Dm
e.-7-8-10-7-8-10--5-7-8-5-7-8--8-10-12-8-10-12--10-10-10- x2

x3
¡-----------------¡
Bb F C Dm C Dm
e.-7-8-10-7-8-10--5-7-8-5-7-8--8-10-12-8-10-12----10-10-8-8-12-10-10-


Bueno ahy la tienen suena mas o menos = si ay correcciones pasenme la voz
Ah… y cualquier duda a mi mail [email protected] TE QUIERO YY


ACORDES PARA GUITARRA

PIANO UKELELE
Bb
F
C
Dm
Gm
A7


Las más tocadas de Dúo Romance

Bb
F
C
Dm
Gm
A7