Mi tierna flor
Dúo Romance
Acordes

Subida por Matucho


Más Versiones
Ver. 2 Ver. 3 Ver. 4 Ver. 5

HERRAMIENTAS

Cambiar Cifrado
Americano Latino

Cambiar Tonalidad
-1 +1

Partir Pantalla Imprimir FAQ

+A
-A

LETRA CON ACORDES

¿Tu Guitarra esta Afinada? PRUEBA NUESTRO NUEVO AFINADOR

Si hay dudas escriban a mi correo electronico
[email protected]

INTRO:

quenacho

F#m E D C#
1|-5-7-5-4-5-4-2-4-2-4-2-1-4-9-|
2|-----------------------------|
3|-----------------------------|
4|-----------------------------|

guitarra

F#m E D C#
1|-9--9--9-10-------------9-------------7--------|
2|--10-10----12--9-12-9-12-10--7-10-7-10-9--9-12-|
3|-----------------------------------------------|
4|-----------------------------------------------|

F#m D C# F#m
1|-9-------10-10-10-9-9-13-13-16-14-|
2|--7-7-9-7-----7-------------------|
3|----------------------------------|
4|----------------------------------|

Coro

Mi tierna flor, llegaste tú a mi vivir, cuando ya no pensaba amar
F#m E A E A
desenfrenado tenía el corazón, fuiste tú quien me hizo cambiar
E F#m E F#m
desenfrenado tenia el corazón, fuiste tú quien me hizo cambiar.
A F#m E F#m
Son tus ojos que me cautivaron, tu rostro tan angelical
E A E A
es tu sonrisa que me enloquece, siento en mi pecho vibrar de emoción
E F#m E F#m
es tu sonrisa que me enloquece, siento en mi pecho vibrar de emoción
A F#m E F#m

La distancia nos separó, y el tiempo nos juntará
A E D A
tu amor y el mío, nunca nunca podrá terminar
A E D A
las esperanzas de volverte a ver, me calmarán este dolor
F#m E D A
las esperanzas de volverte a ver, me calmarán este dolor
F#m E D F#m

Picada

A E D A
1|-12--12-12-12--14-12--12-14-14-14-12------|
2|---14--------14---------------------12-14-|
3|------------------------------------------|
4|------------------------------------------| (X2)

Teclado
F#m E D A
1|----------------------14-12----------------------------|
2|-14-14-12-----------14-----14-15-14-15--15-15-14-12-14-|
3|---------14-14-14-14-----------------------------------|
4|-------------------------------------------------------|

F#m E D F#m
1|----------------------14-12--12--14----------------|
2|-14-14-12-----------14-----14--14--15-15-14-13-----|
3|---------14-14-14-14--------------------------14---|
4|---------------------------------------------------|

Guitarra
E F#m
1|-5-4-0-2-|


Nunca dejes de amarme amor, es nuestro amor de verdad
E A E A
siento que nunca podrá terminar, te amaré hasta el final
E F#m E F#m
siento que nunca podrá terminar, te amaré hasta el final
A F#m E F#m
Momentos de paz y amor, pasión que enciende mi piel
E A E A
es lo que encuentro en tu ser, mi tierna y dulce flor
E F#m E F#m
noche tras noche te sueño mi bien, siento que alcanzo la felicidad.
A F#m E F#m

La distancia nos separó, y el tiempo nos juntará
A E D A
tu amor y el mío, nunca nunca podrá terminar
A E D A
las esperanzas de volverte a ver, me calmarán este dolor
F#m E D A
las esperanzas de volverte a ver, me calmarán este dolor...
F#m E D F#m


Picada


espero que me escribas para darles las picadas de otras canciones.
Saludos a la fraternidad de JUFRA Sicaya
Paz Y Bien para todos nuestros hermanos.
Que viva "Cristo".

////////////////// ¿Te Animas? Sube una canción a este sitio. //////////////////

ACORDES PARA GUITARRA

PIANO UKELELE
F#m
E
D
C#
A


COMENTARIOS

Aún no hay comentarios,

¡escribe el primero!

Escribe una pregunta, duda o comentario sobre esta canción, te responderemos a la brevedad.

Las canciones más tocadas de Dúo Romance

Toca una Canción al Azar de Dúo Romance
F#m
E
D
C#
A

02.03


Nuestro servidor se demoró 0.02 segundos en generar esta página. Eso fue realmente muy rápido!