Anjo Protetor (Acordes)

Eduardo Costa

Subida por Diegogo

Compartir


Imprimir FAQ
+A
-A

Texto

Desplazamiento

Transportador

Color de Fondo

Archivos

-A
+A
Intro:
      B              F#
E|---------2-2-----2-2-----4-4-6-6-|
B|---------------------------------|
G|---4-3-4-----3-4-----3-4---------|
D|---------------------------------|
A|---------------------------------|
E|---------------------------------|
        C#m7                 E                    B
E|--7-7-7-6-6-4-----|---------------------------------|
B|--------------7~~-|---4-5-5/7-7-5-4-----------------|
G|------------------|-4---------------6-4-------------|
D|------------------|---------------------6-----------|
A|------------------|-----------------------2-4-4/6---|
E|------------------|---------------------------------|

B                        F#
Em meu peito sinto tudo fora de lugar
          C#m
Foi só um dia sem te amar
          E
E não consigo disfarçar meu medo
 B                        F#
Como se um silêncio me tirasse até o ar
       C#m
Está difícil respirar
          E                       F#
Pois não posso ter você aqui comigo
          G#m  B  F#
Vem me buscar
                    E
Vem salvar meu coração

Refrão:
 G#m                     E
Não como, não bebo, não posso dormir
           B               F#
Nada me agrada sem você aqui
 G#m                   E
Fujo dos amigos tento me esconder
       B                F#
Gosto deles mais amo você
         G#m             E
Quem vai me acalmar, me suportar
   B            F#
Me adoçar meus beijos
  C#m               B/D#
Você que é meu anjo
      E           F#         B
Só você que é meu anjo protetor

(solo da intro) B F# C#m E

Repete 1ª parte

Repete refrão

E     B  F#
Ou ou ou...
 G#m                   E
Fujo dos amigos tento me esconder
       B                F#
Gosto deles mais amo você
         G#m             E
Quem vai me acalmar, me suportar
   B            F#
Me adoçar meus beijos
  C#m               B/D#
Você que é meu anjo
      E           F#         B        F#
Só você que é meu anjo protetor... uouou
     C#m
Só você que é meu anjo
      E           F#         B
Só você que é meu anjo protetor

Video Clip de Anjo Protetor


ACORDES PARA GUITARRA

PIANO UKELELE
B
F#
C#m7
E
C#m
G#m
B/D#


TOP 20: Las más tocadas de Eduardo Costa


Acordes

Cerrar
B
F#
C#m7
E
C#m
G#m
B/D#

16.44

x

129