Batom Vermelho (Acordes)

Eduardo Costa

Subida por Acevedo

Compartir


Imprimir FAQ
+A
-A

Texto

Desplazamiento

Transportador

Color de Fondo

Archivos

-A
+A

Intro: D E C#m D

Solo: 

      E       F#            D#m            E
E|---6/7-6----6/7-6--7/9---6/7-6-----------------------|
B|--------7--------7------------7----------------------|
G|---------8---------------------8---6/8-------4h6-6/8-|
D|------------------------------------------4h6--------|
A|-----------------------------------------------------|
E|-----------------------------------------------------|


Riff 1:

E|---6-7-6h7p6-------------|
B|-------------9-7/0-7/9---|
G|-------------------------|
D|-------------------------|
A|-------------------------|
E|-------------------------|



E                            F#
É não tô ligando faz o que quiser    (Riff 1)
                              C#m
Se me encontrar finge que não me viu

Deixa o meu coração vazio
      G#m F#  E
Pra outra mulher

                       F#
E a partir de agora vou voltar
                                C#m
Pros meus amigos, pra farra, pro bar
                   
O meu motivo pra mudar
             E   F#
Acabou de acabar 

Riff 2 (2x):

E|---6/7-6-----------------|
B|--------7----------------|
G|-------------------------|
D|-------------------------|
A|-------------------------|
E|-------------------------|


Refrão:       
E
Fui pra balada e armei um pizero
     F#
beijei mais bocas que batom vermelho
    D#m                       G#m
Mais eu, ainda me vejo com você
    
E
Eu passo o dia inteiro bebendo
 F#
E quando eu acho que eu tô te esquecendo
 D#m                   G#m
Eu, ainda me vejo com você

Solo:

E|--9/11-11-11-11-14-9/11-11-11-11-14-7/9-9-9-9-14-7/9-9-9-9-14-6/7-6---|
B|--------------------------------------------------------------------7-|
G|----------------------------------------------------------------------|
D|----------------------------------------------------------------------|
A|----------------------------------------------------------------------|
E|----------------------------------------------------------------------|

E|--------------------------|
B|--------------------------|
G|-8-4h6-6/8-8-8-8-8/0------|
D|--------------------------|
A|--------------------------|
E|--------------------------|


E                            F#
É não tô ligando faz o que quiser    
                              C#m
Se me encontrar finge que não me viu

Deixa o meu coração vazio
      G#m F#  E
Pra outra mulher

                       F#
E a partir de agora vou voltar
                                C#m
Pros meus amigos, pra farra, pro bar
                   
O meu motivo pra mudar
             E   F#
Acabou de acabar 

Riff 2 (2x):

E|---6/7-6-----------------|
B|--------7----------------|
G|-------------------------|
D|-------------------------|
A|-------------------------|
E|-------------------------|


Refrão 2x:       
E
Fui pra balada e armei um pizero
     F#
beijei mais bocas que batom vermelho
    D#m                       G#m
Mais eu, ainda me vejo com você
    
E
Eu passo o dia inteiro bebendo
 F#
E quando eu acho que eu tô te esquecendo
 D#m                   G#m
Eu, ainda me vejo com você

Solo:

E|--9/11-11-11-11-14-9/11-11-11-11-14-7/9-9-9-9-14-7/9-9-9-9-14-6/7-6---|
B|--------------------------------------------------------------------7-|
G|----------------------------------------------------------------------|
D|----------------------------------------------------------------------|
A|----------------------------------------------------------------------|
E|----------------------------------------------------------------------|

E|--------------------------|
B|--------------------------|
G|-8-4h6-6/8-8-8-8-8/0------|
D|--------------------------|
A|--------------------------|
E|--------------------------|

Video Clip de Batom Vermelho


ACORDES PARA GUITARRA

PIANO UKELELE
D
E
C#m
F#
D#m
G#m


TOP 20: Las más tocadas de Eduardo Costa


Acordes

Cerrar
D
E
C#m
F#
D#m
G#m

23.31

x

276