Anduve bajo el sol (El Aire) Acordes



Más Versiones de esta Canción |

Cambiar Cifrado: |SOL > G| - |G > SOL|

BAJAR UN TONO BAJAR UN SEMI-TONO SUBIR UN SEMI-TONO SUBIR UN TONO PARTIR PANTALLA EN VERTICAL PARTIR PANTALLA EN VERTICAL ¡Ayuda!
-A
+A
D  Bm F#m A


solo (A) (D Bm F#m A)


e -----------------------------------------------------
b -----------------------------------------------------
g -------------6-7-6/7-6-4-4/6-4-----------------------
d ----6-7--7-9-------------------5--5/7-5444/55-4/5----
a -7-9-----------------------------------------7---7-5-
e -----------------------------------------------------


D
Anduve bajo el sol
Bm
por caminos infinitos
F#m
anduve bajo el sol
A
anduve por doquier


D
Dejando el tiempo atrás
Bm
cultivando en el olvido
F#m
buscandome la prueba
A
para siempre regresa a…


solo (B) (D Bm A)


e -10----10----10--10----10----10.-
b ---10----10--------10----10------
g -----11----11--11----11----11----
d ---------------------------------
a ---------------------------------
e ---------------------------------


e ---7---7----------------------
b --7--7-----10-10-1010---------
g -7---------11-11-1111---------
d -----------11-11-1111---------
a ------------------------------
e ------------------------------

D
Y anduve bajo el sol
Bm
sintiendo el frio de la muerte
F#m
anduviste bajo el sol
A
reconozco tu valor

D
preste mucha atención
Bm
aquí no vale la pena
F#m
tratando contigo
A
de encontrar algo mejor


solo (b)


D
Y anduve bajo el sol
Bm
indiferente a mi suerte
F#m
anduviste najo el sol
A
reconozco ese color


D
anduvimos paralelos
Bm
en busca de un oasis
F#m
anduvimos paralelos
A
esos fuimos los dos


solo (b)


D Bm F#m A
Tal vez tu tengas el color
D Bm F#m A
tal vez yo no pueda decir que no
no no….


solo (b) ( no no…)


riff


e -2--0-2-3-2--2--0-------------
b -3--3-3-3-3--3--2-------------
g -2--2-2-2-2--2--2-------------
d -------------0--2-------------
a ------------------------------
e ------------------------------ x2






D Bm
Tal vez exista el momento
F#m A
en el que tu y yo volvamos a crear


D Bm
Tal vez un lugar en le tiempo
F#m A
donde no anduve bajo el sol


solo (b)


D Bm F#m A
Tal vez tu tengas el color
D Bm F#m A
Tal vez yo no pueda decir que no
no no….


solo (b) ( no no…)


riff


VIVA EL ROCK PERUANOOOOOOO!!!!



¡Siguiente!

Toca una Canción al Azar de El Aire

Inicia Sesión para guardar
esta versión como favorita

DESCARGAS:
Descargar
(Anduve bajo el sol .pdf)


Aún no hay comentarios, ¡escribe el primero!

Escribe un comentario o pregunta sobre esta canción:






Más canciones de El Aire

Anduve bajo el sol

Siguiente


ABRIR ACORDES

Nuestro servidor se demoró 4.39 segundos en generar esta página. Claramente hay conexiones mas rápidas...