El delirio de perderte
El Polaco
Acordes

Subida por Niko23


Más Versiones
Ver. 2

Cambiar Cifrado
Americano Latino

Cambiar Tonalidad
-1 +1

Partir Pantalla Imprimir FAQ

+A
-A
E--------------------------------------------------1--
B------1--------------1---------------1------------1--
G---3----3---------3---3----------3----3------3----2--
D-4--------4-4--3--------3-3--2----------2-2-------3--
A--------------------------------------------------3--
E--------------------------------------------------1--

Hacer en F un rasguido

F Dm
En el dia de hoy he dajado de quererte
A# C
No recuerdo haber sufrido el delirio de perderte
F Dm
Camino por ahí sin pensar si al encontrarte
A# C
No me importa recordarte que mas da si tu no estas
A# C
No niego que sufri mucho por ti,
A# C
el sol tambien salio es para mi
A# F A# C F
Vivo entre las luces de este nuevo amooooooooor

E-8-6h8p6-5----------------------------------------------------
B-----------8-6-----7x10veces-0-7/10-10-8-8-7-7------7x10vcs-
G------------------------------------------------9-9-7---------
D----------------/7--------------------------------------------
A-------------------------------------------------------------
E--------------------------------------------------------------

E-------------------------------------------------------------
B-------------------------------------------------------------
G-/7-6-6-4-4-------4x10veces-5/7-7-6-6-4-4-2-2-4-6x10veces--
D------------7-7-5--------------------------------------------
A--------------------------------------------------------------
E--------------------------------------------------------------

E----------------------------------------------------------
B---3-----3---------3-----3-----3-----3----------3------3--
G-----4-----4---4-----4------------2-----2---2------2------
D-5-----5-----5---5-----5------4-----4-----4---4------4----
A----------------------------------------------------------
E----------------------------------------------------------

E---------------------------------------------------------
B----5-----5-------5-----5----5------------5-5h7-7--------
G------6----6--6-----6-----6----6-6h7-7--7----------------
D-7-----7----7---7-----7----------------------------------
A---------------------------------------------------------
E---------------------------------------------------------

E---------------------------------------------------------
B---3-----3----------3----3------3-----3--------3-----3---
G-----4-----4---4-----4------------2----2---2-----2-------
D-5-----5-----5---5----5------4-----4----4----4-----4-----
A---------------------------------------------------------
E---------------------------------------------------------

E----------------------------------------------------------
B---5----5------5----5---5-------------5-5h7-7---5-5h7-7---
G-----6---6--6----6----6---6-6h7-7--7----------7-----------
D-7----7---7---7----7--------------------------------------
A----------------------------------------------------------
E----------------------------------------------------------

E-----------10--
B-7-8-7-----10--
G-----------11--
D---------------
A---------------
E---------------


F#m/5 A G A
Yo se que al escuchar esta cancion lloraras al recordarme
F#m/5 A G A
Yo fui quien te enseño a ser mujer, yo te di el primer beso
Bm A G A
Aunque ya no estes conmigo se que tu no me olvidaras

F#m/5 Bm G A
Primer amor quien no tuvo en la vida
F#m/5 Bm G A F#m/5
Primer amor pasa el tiempo y no se olvida




Tablatura del acorde
F#m/5

E--2-------
B--3------
G--2-------
D--4-------
A--5-------
E--2-------


bueno locos eso es todo espero que les guste cualquier cosa a
micorreo un saludos para todos los pibes de villa lijan (salta)


ACORDES PARA GUITARRA

PIANO UKELELE
F
Dm
A#
C
A
G
Bm


COMENTARIOS

Aún no hay comentarios,

¡escribe el primero!

Escribe una pregunta, duda o comentario sobre esta canción, te responderemos a la brevedad.

Las más tocadas de El Polaco

Toca una Canción al Azar de El Polaco
F
Dm
A#
C
A
G
Bm