Relentless Game (Acordes)

Far From Alaska

Subida por JosefinaBarajas

Compartir


Cambiar Cifrado
Americano Latino

Cambiar Tonalidad
-1 +1
Imprimir FAQ

Para cambio de tonalidad, zoom, cambio de cifrado, haz clic en este botón


CONSEJO:

Afina tu guitarra antes de tocar. Prueba nuestro afinador en linea.

+A
-A

Texto

Desplazamiento

Transportador

Color de Fondo

Archivos

TONALIDAD, TAMAÑO, CIFRADO, SCROL.

Nos renovamos: Ahora puedes cambiar TODO haciendo clic en ICONO de la Guitarra () que aparece en la parte inferior de esta página.


LETRA CON ACORDES

            
E|--X----------------------------------------|
B|-------------------------------------------|
G|-----4-h5--5--------------4-h5--5----------|
D|-----3-----3------3h5-----3-----3--5p3-----|
A|-----5--------3h5-----5---5------------5---|
E|-------------------------------------------|

Spent my living

Feeling blue

Full of boundaries

Like I was tought to

Spent my living

On my own

Feeling sorry

For what I've become


E|---------------------------------|
B|---------------------------------|
G|---------------------------------|
D|---------------------------------|
A|---------------------------------|
E|--0-0--12p10-10p0h10-12-12b13----|

E|---------------------------------|
B|---------------------------------|
G|---------------------------------|
D|---------------------------------|
A|---------------------------------|
E|--0-0--12p10-10p0h10--5-3b4------|

E|---------------------------------|
B|---------------------------------|
G|---------------------------------|
D|---------------------------------|
A|---------------------------------|
E|--0-0--12p10-10p0h10-12-12b13----|

E|---------------------------------|
B|---------------------------------|
G|---------------------------------|
D|-------------------------x-x-----|
A|---------------------------------|
E|--0-0--12p10-10p0h10--12---------|

E|--------------------------|----------------------------|
B|--------------------------|----------------------------|
G|---------------------3----|----------------------------|
D|-------5p3---3---3h5---5--|------5p3---3---------------|
A|-----------5---5----------|----------5-----------------|
E|--5-5---------------------|--5-5----------5-4-3-2-1-0--|                                                                                                                                                                                                                                                                                                                                                                                                                                                                                                                                                                                                                                                                                                                                                                                                                                                                                                                                                                                                                                                                                                                                                                                                                                                                                                                                                                                                                                                                                                                                                                                                                                                                                                                                                                                                                                                                                                                                                                                                                                                                                                                                                                                                                                                                                                                                                                                                                                                                                                                                                                                                                                                                                                                                                                                                                                                                                                                                                                                                                                                                                                                                                                                                                                                                                                                                                                                                                                                                                                                                                                                                                                                                                                                                                                                                                                                                                                                                                                                                                                                                                                                                                                                                                                                                                                                                                                                                                                                                                                                                                                                                                                                                                                                                                                                                                                                                                                                                                                                                                                                                                                                                                                                                                                                                                                                                                                                                                               

E|---------------------------------|
B|---------------------------------|
G|---------------------------------|
D|---------------------------------|
A|---------------------------------|
E|--0-0--12p10-10p0h10-12-12b13----|

E|---------------------------------|
B|---------------------------------|
G|---------------------------------|
D|---------------------------------|
A|---------------------------------|
E|--0-0--12p10-10p0h10--5-3b4------|


Ritmo por trás da próxima parte

E|----------------------|
B|----------------------|
G|----------------------|
D|----------------------|
A|------5p3---3---3h5/--|
E|--0-0-----5---5-------|

Catatonic

White blank page

No aim, no goal

Walking in a maze


E|---------|
B|---------|
G|---7p5---|
D|---------|
A|---------|
E|---------|

E|----------------------|
B|----------------------|
G|----------------------|
D|----------------------|
A|------5p3---3---3h5/--|
E|--0-0-----5---5-------|

And I kept going

Like a fool

Faking cool lines

Like I had a clue

E|----------------------------|
B|----------------------------|
G|----------------------------|
D|----------------------------|
A|------------5p3---3---3h5/--|
E|--3-5---0-0-----5---5-------|

Now I'm walking

In my own shoes

Down the path that

Life's forced me to


E|---------|
B|---------|
G|---7p5---|
D|---------|
A|---------|
E|---------|

E|----------------------|
B|----------------------|
G|----------------------|
D|----------------------|
A|------5p3---3---3h5/--|
E|--0-0-----5---5-------|


Then I could see

My future-self

Caring no more

'Bout this living hell


E|----------------------|
B|----------------------|
G|---------------7~~~---|
D|----------------------|
A|--3-3-3-3-5-5---------|
E|----------------------|

E|----------------------|
B|----------------------|
G|----------------------|
D|----------------------|
A|------5p3---3---3h5/--|
E|--0-0-----5---5-------|

E|-----|
B|-----|
G|-----|
D|-----|
A|--5--|
E|--5--|

Break me, take me

Relentless game

Cause I'm not the one

I was before and I claim to

Live and die among the rest

Break me, take me

Relentless game

Off the chains I go

                          E|-----|
                          B|-----|
                          G|-----|
                          D|-----|
                          A|--1--|
                          E|--1--|

Release my soul and drown myself

                    E|-----|
                    B|-----|
                    G|-----|
                    D|-----|
                    A|--3--|
                    E|--3--|
In tides of what is truly new


E|---------------------------------|
B|---------------------------------|
G|---------------------------------|
D|---------------------------------|
A|---------------------------------|
E|--0-0--12p10-10p0h10-12-12b13----|

E|---------------------------------|
B|---------------------------------|
G|---------------------------------|
D|---------------------------------|
A|---------------------------------|
E|--0-0--12p10-10p0h10--5-3b4------|

E|---------------------------------|
B|---------------------------------|
G|---------------------------------|
D|---------------------------------|
A|---------------------------------|
E|--0-0--12p10-10p0h10-12-12b13----|

E|--------------------------------------|
B|--------------------------------------|
G|--------------------------------------|
D|--------------------------------------|
A|--------------------------------------|
E|--0-0--12p10-10p0h10--5-4-3-2-1-0-----|

E|--10~~---12~~---10~~--12~~--10~~--12~~--10~~---|
B|--11~~---13~~---10~~--11~~--11~~--13~~--10~~---|
G|--12~~---14~~---10~~--12~~--12~~--14~~--10~~---|
D|-----------------------------------------------|
A|-----------------------------------------------|
E|-----------------------------------------------|

The world's weight on my back

And I'm not going back home

In my journey I craft

The love, the joys of tomorrow (I'm not going back home)


E|-----|
B|-----|
G|-----|
D|-----|
A|--5--|
E|--5--|

Break me, take me

Relentless game

Cause I'm not the one

I was before and I claim to

Live and die among the rest

Break me, take me

Relentless game

Off the chains I go

                          E|-----|
                          B|-----|
                          G|-----|
                          D|-----|
                          A|--1--|
                          E|--1--|

Release my soul and drown myself

                    E|-----|
                    B|-----|
                    G|-----|
                    D|-----|
                    A|--3--|
                    E|--3--|
In tides of what is truly new


Base para o solo

E|-------------------|
B|-------------------|
G|-------------------|
D|-------------------|
A|--5-5-5-5-5-5-8-3--|
E|--5-5-5-5-5-5-8-3--|


Solo

E|-------------------------------------------|
B|-------------------------------------------|
G|--0-32-0--3/5-3~~--5p3-5p3-5p3-5p3-5-5b7--|
D|-------------------------------------------|
A|-------------------------------------------|
E|-------------------------------------------|

E|-------------------------------------------|
B|-------------------------------------------|
G|--0-32-0--3/5-3~~--3p0-3p0-3p0-3p0-4b5----|
D|-------------------------------------------|
A|-------------------------------------------|
E|-------------------------------------------|

E|-------------------------------------------|
B|-------------------------------------------|
G|--0-32-0--3/5-3~~--5p3-5p3-5p3-5p3-5-5b7--|
D|-------------------------------------------|
A|-------------------------------------------|
E|-------------------------------------------|

E|-------------------------------------------|
B|-------------------------------------------|
G|--9/12-9-----------------------------------|
D|----------9/12-9----7b8h7-5~~~~------------|
A|-------------------------------------------|
E|-------------------------------------------|

Base até o final da música
E|-------------------|
B|-------------------|
G|-------------------|
D|-------------------|
A|--5-5-5-5-5-5-8-3--|
E|--5-5-5-5-5-5-8-3--|

Spent my living

Feeling blue

Full of boundaries

Like I was tought to

Spent my living

On my own

Feeling sorry

For what I've become

Video Clip de Relentless Game


ACORDES PARA GUITARRA

PIANO UKELELE


TOP 20: Las más tocadas de Far From Alaska


Acordes

Cerrar

23.46


5371