Rolling Dice (Acordes)

Far From Alaska

Subida por joujim

Compartir


Cambiar Cifrado
Americano Latino

Cambiar Tonalidad
-1 +1
Imprimir FAQ

Para cambio de tonalidad, zoom, cambio de cifrado, haz clic en este botón


CONSEJO:

Afina tu guitarra antes de tocar. Prueba nuestro afinador en linea.

+A
-A

Texto

Desplazamiento

Transportador

Color de Fondo

Archivos

TONALIDAD, TAMAÑO, CIFRADO, SCROL.

Nos renovamos: Ahora puedes cambiar TODO haciendo clic en ICONO de la Guitarra () que aparece en la parte inferior de esta página.


LETRA CON ACORDES

Intro e verso: 

E|-------------------|
B|-------------------|
G|-------------------|
D|----4-------2------|
A|------0-2h4---4----|
E|--2-------------5--|

Continua de "I got a symphony in my head whispering things I should hide..." até o refrão.

Pré-Refrão:

"Lie, but you won't"

E|----------------------------|
B|----------------------------|
G|----------------------------|
D|------11-----11--11-9-9--11-|
A|--4s--9--4s--9---9--7-7--9--|
E|--2s-----2s-----------------|

Pausa em "...see beneath the lines they've never been written right''

Refrão:

"It's like a rolling dice"

E|----------------------------|
B|----------------------------|
G|----------------------------|
D|----------------------------|
A|----------------------------|
E|--2v---0-2-0-2v---0-2-0-5v--|

"It goes 1, 2, 3, 4 times"

E|-------------------|
B|-------------------|
G|-------------------|
D|--------2h4--------|
A|--2-3-4------------|
E|-------------------|

e volta pro riff do refrão.

Em: "It feels chaotic, right"

E|-------------------|
B|-------------------|
G|-------------------|
D|-------------------|
A|--2-3-4------------|
E|-------------------|

E volta pro riff da intro com o solo de sliding guitar (não é a guitarra que faz esse solo, e sim o lap steel)

Verso 2:

E|-------------------|
B|-------------------|
G|-------------------|
D|-------------------|
A|----2h4------------|
E|--2-------6v-2-----|

E|-------------------|
B|-------------------|
G|-------------------|
D|-------------------|
A|----2h4------------|
E|--2-------6v-------|

E|--------------------------|
B|--------------------------|
G|--------------------2h4b5-|
D|----------------2h4-------|
A|----2h4-------------------|
E|--2-------6v-2------------|

até: "Keep the feeling that a man should have the chance to draw his own true line"

Pré-Refrão:

E|----------------------------|
B|----------------------------|
G|----------------------------|
D|------11-----11--11-9-9--11-|
A|--4s--9--4s--9---9--7-7--9--|
E|--2s-----2s-----------------|

Refrão:

E|----------------------------|
B|----------------------------|
G|----------------------------|
D|----------------------------|
A|----------------------------|
E|--2v---0-2-0-2v---0-2-0-5v--|

E|-------------------|
B|-------------------|
G|-------------------|
D|--------2h4--------|
A|--2-3-4------------|
E|-------------------|

acaba com:

E|-------------------|
B|-------------------|
G|-------------------|
D|-------------------|
A|--2-3-4------------|
E|-------------------|

''RIGHT!''

Video Clip de Rolling Dice


ACORDES PARA GUITARRA

PIANO UKELELE


TOP 20: Las más tocadas de Far From Alaska


Acordes

Cerrar

00.48


115