Compartir


Imprimir FAQ
+A
-A

Texto

Desplazamiento

Transportador

Color de Fondo

Archivos

-A
+A
Use uma pestanaira na quarta casa 
 
  INTRO.4x 
e|--------------------------------|-------------------------------|
B|--------------------------------|-------------------------------|
G|----------6-----------6---------|---6-----------6---------------|
D|----0h6--------0h6--------------|-------6-----------6-----------|
A|----0---0---0---0---0---0---0---|-------------------------------|
E|--------------------------------|---7---7---7---7---7---7---7---|
     

e|----------------------------------|
B|----------------------------------|
G|---------6---------------6--------|
D|---0h6-------------0h6------------|
A|----------------------------------|
E|---5---5---5---5---5---5---5---5--|

e|-----------------------------------|
B|-----------------------------------|
G|---6---------------6---------------|
D|-------6---------------6-----------|
A|-----------------------------------|
E|---0---0---0---0---0---0---0---0---|


Riff 1.
e|-------------------|-------------------|
B|-------------------|-------------------|
G|-------------------|-------------------|
D|---------7---------|---------6---------|
A|---0h7-------------|---0h6-------------|
E|---5---5---5---5---|---0---0---0---0---|

e|---------------0---5r--------5r------------------|
B|------0--5--7---------7---5-----7---5r-----------|
G|---6------------------------------------6-6-0-6--|
D|-------------------------------------------------|
A|-------------------------------------------------|
E|-------------------------------------------------|

e|-------------------|-------------------|
B|-------------------|-------------------|
G|-------------------|-------------------|
D|---------7---------|---------6---------|
A|---0h7-------------|---0h6-------------|
E|---5---5---5---5---|---0---0---0---0---|

e|---------------0--------------------------|
B|------0--5--7-----7--5--0--5--0-----------|
G|---6-----------------------------6-6-0-6--|
D|------------------------------------------|
A|------------------------------------------|
E|------------------------------------------|


Solo 1

e|---9---12--9--12---9--12---9--12---9--12---9--12---9---|
B|-------------------------------------------------------|
G|-------------------------------------------------------|
D|---0---0---0-------------------------------------------|
A|-------------------------------0---0---0---0---0---0---|
E|---------------0---0---0---0---------------------------|

e|---9--12---9--12--12--12--12---9---9-------9--|
B|--------------------------------------12------|
G|----------------------------------------------|
D|---0---0---0----------------------------------|
A|-------------------------------0---0---0---0--|
E|---------------0---0---0---0------------------|

e|------------------------5--6--5--5--------5------------------------|
B|---------5-----5--6--8--------------6--8-----8--6--6--5------------|
G|---6--8-----8--------------------------------------------6-6-0-6---|
D|-------------------------------------------------------------------|
A|-------------------------------------------------------------------|
E|-------------------------------------------------------------------|


Solo 2. dedilhado
Parte 1

e|----------0-----------0-----------0-------0---------0---------0-|
B|------0-----------0-----------0-------0---------0---------0-----|
G|--------9-----------9-----------9-------8---------8---------8---|
D|---11-------11-11-------11-11-------9-------9-9-------9-9-------|
A|----------------------------------------------------------------|  
E|----------------------------------------------------------------|   
                                                                                                      
e|---------0---------0---------0---|
B|-----0---------0---------0-------|
G|-------6---------6---------6-----|
D|---7-------7-7-------7-7---------|
A|---------------------------------|
E|---------------------------------|

                                                                                                        
e|---------0---------0-------0---------0-----------0-----------0-|  
B|-----0---------0---------0-------0-----------0-----------0-----|
G|-------8---------8-----------------9-----------9-----------9---|
D|---9-------9-9-------9-9------11-------11-11-------11-11-------|
A|---------------------------------------------------------------|
E|---------------------------------------------------------------|    

e|---------0---------0---------0---|
B|-----0---------0---------0-------|
G|-------8---------8---------8-----|
D|---9-------9-9-------9-9---------|
A|---------------------------------|
E|---------------------------------|

e|---------0---------0---------0--------0---------0---------0----|
B|-----0---------0---------0--------0---------0---------0--------|
G|-------6---------6---------6--------8---------8---------8------|
D|---7-------7-7-------7-7--------9-------9-9-------9-9----------|
A|---------------------------------------------------------------|
E|---------------------------------------------------------------|

Parte 2

e|----------0--------0--------0--------0--|---------0-------0-------0-------0--|
B|------0--------0--------0--------0------|-----0-------0-------0-------0------|
G|--------9--------9--------9--------9----|-------8-------8-------8-------8----|
D|---11-------11-------11-------11--------|---9-------9-------9-------9--------|
A|----------------------------------------|------------------------------------|
E|----------------------------------------|------------------------------------|

e|---------0-------0-------0-------0------|
B|-----0-------0-------0-------0----------|
G|-------6-------6-------6-------6--------|
D|---7-------7-------7-------7------------|
A|----------------------------------------|
E|----------------------------------------|

e|---------0-------0-------0-------0------|----------0--------0--------0--------8--|
B|-----0-------0-------0-------0----------|------0--------0--------0--------0------|
G|-------8-------8-------8-------8--------|--------9--------9--------9--------9----|
D|---9-------9-------9-------9------------|---11-------11-------11-------11--------|
A|----------------------------------------|----------------------------------------|
E|----------------------------------------|----------------------------------------|

e|---------0-------0-------0-------0----|
B|-----0-------0-------0-------0--------|
G|-------8-------8-------8-------6------|
D|---9-------9-------9-------9----------|
A|--------------------------------------|
E|--------------------------------------|

                                             varias vezes (escute a musica)
e|---------0-------0-------0-------0----|---000000-------------------------|
B|-----0-------0-------0-------0--------|---000000-------------------------|
G|-------6-------6-------6-------6------|---888888-------------------------|
D|---7-------7-------7-------7----------|---999999-------------------------|
A|--------------------------------------|----------------------------------|
E|--------------------------------------|-----------------------------------                                    



Riff 1.
e|-------------------|-------------------|----------------0---5r--------5r--------------------|
B|-------------------|-------------------|-------0--5--7---------7---5-----7---5r-------------|
G|-------------------|-------------------|---6--------------------------------------6-6-0-6---|
D|---------7---------|---------6---------|----------------------------------------------------|
A|---0h7-------------|---0h6-------------|----------------------------------------------------|
E|---5---5---5---5---|---0---0---0---0---|----------------------------------------------------|

e|-------------------|-------------------|---------------0------------------------------|
B|-------------------|-------------------|------0--5--7-----7--5--0--5--0---------------|
G|-------------------|-------------------|---6-----------------------------6-6-0-6------|
D|---------7---------|---------6---------|----------------------------------------------|
A|---0h7-------------|---0h6-------------|----------------------------------------------|
E|---5---5---5---5---|---0---0---0---0---|----------------------------------------------|



A música segue assim

intro:4x

Looking out for love            /|
In the night so still            |Essa parte vc usa a intro
Oh I'll build you a kingdom      |
In that house on the hill       |

Looking out for love  | essa parte vc usa  riff 1            
Big, big love         |/           

You said that you love me      |
And that you always will       | Volta com a intro.
Oh you begged me to keep you   | 
In that house on the hill      |

Looking out for love | 
Big, big love        |/  riff 1

solo 1

solo 2. parte 1


I wake up alone   |
With it all       | essa parte vc usa o solo 2. parte 2
I wake up         |
But only to fall  |


Looking out for love         |        
Big, big love                | Riff 1
Just looking out for love    |
Big, big love                |

HERRAMIENTAS ACORDESWEB:


LETRA DE LA CANCIÓN:

Ver la letra sola (sin acordes)

OTRAS VERSIONES DE LA MISMA CANCIÓN:

Ver. 2 Ver. 3 Ver. 4 Ver. 5 Ver. 6

DESCARGAR PDF / IMPRIMIR CANCIÓN



ACORDES PARA GUITARRA

PIANO UKELELE


TOP 20: Las más tocadas de Fleetwood Mac


Acordes

Cerrar

02.59


198