Got To Move
Fleetwood Mac
Acordes

Subida por albano82
Álbum: Peter Green’s Fleetwood Mac ( 1968)


Más Versiones
Ver. 2

Cambiar Cifrado
Americano Latino

Cambiar Tonalidad
-1 +1

Partir Pantalla Imprimir FAQ

+A
-A
	   


C# G# F#
yes , uah oh babe hmm

C#
you got to move
you can't stay here nomore
F#
you got to move
C#
you can't stay here nomore
G#
oh yes, you're my baby

F# C#
I love you so but still you gotta go
away from here

you won't cook, you won't wash
you won't iron, you won't saw
oh no, you won't even grab the phone
you're my baby,
I love you so but still you gotta go
away from here, yeah


C#|--------12-----12-10---------------------12-------------------15--------12-|
G#|-/12-12-12----------/12---------------12-12-----12s10------------17-12----|
F-|-/12-12-----------------12--------/12----------------/12-------------------|
C#|---------------------------12----------------------------12----------------|
G#|---------------------------------------------------------------------------|
C#|---------------------------------------------------------------------------|
yeah aah


|----------12----12--10--------------------12----12-10----12-10-------------|
|---/12-12-12----------/12----------/12-12-12---------/12------/12s10-------|
|---/12-12-----------------12-------/12-12---------------------------/12----|
|-----------------------------12-----------------------------------------12-|
|---------------------------------------------------------------------------|
|---------------------------------------------------------------------------|
yes ah


|--------12-10--------------------------|
|-----12------/12s10-----------/12-12--|
|-/12---------------/12--------/12-12--|
|-----------------------12--------------|
|---------------------------------------|
|---------------------------------------|


Well, I'd rather be dead and in my grave
than to see another man to take my place
Oho yes, you got to move uh yeah
you're my baby
I love you so but still you gotta go
away from here


|--------12--------------------------10-------------------------------------|
|-----12---------12-s-10----------------/12---------/12-12------------------|
|-/12--------------------/12----------------12-------------12---------------|
|----------------------------12-------------------------------12------------|
|---------------------------------------------------------------------------|
|---------------------------------------------------------------------------|
yes


|-12-10------12--10--------------15--12------12--10-------------------------|
|-------/12----------/12----------------/12---------/12----------------12--|
|-------------------------12----------------------------12-------------12--|
|----------------------------------------------------------12----------12--|
|---------------------------------------------------------------------------|
|---------------------------------------------------------------------------|
yeah


|--------12-10------------------------------------------|
|-----12------12s10-------------/12-/12-----------12--|
|-/12--------------/12--------------------/12------12--|
|----------------------12---------------------12---12--|
|-------------------------------------------------------|
|-------------------------------------------------------|
hey


well I'd rather be dead and in my grave
than to see man take my place
mmh, yeah, you got to move, yeah
you're my baby I love you so
but still you got to go away from here

you got to move away from here oh yeah,
you got to move, ah, away from here
you're my baby I love you so
but still you got to go away from here

(let's play that ...)


|-----12-------------12-10--------------------/12---15-12----12-10----------|
|-/12-12------12----------/12---------/12-12-/12---------12-------/12------|
|-/12---------12--------------12------/12-12--------------------------12---|
|-------------12---------------------------------------------------------12|
|---------------------------------------------------------------------------|
|---------------------------------------------------------------------------|
yeah yes

ACORDES PARA GUITARRA

PIANO UKELELE


COMENTARIOS

Aún no hay comentarios,

¡escribe el primero!

Escribe una pregunta, duda o comentario sobre esta canción, te responderemos a la brevedad.

Las más tocadas de Fleetwood Mac

Toca una Canción al Azar de Fleetwood Mac