No Questions Asked
Fleetwood Mac
Acordes

Subida por LEIDER100


Más Versiones
Ver. 2

Cambiar Cifrado
Americano Latino

Cambiar Tonalidad
-1 +1

Partir Pantalla Imprimir FAQ

+A
-A
	  hide this tabHide tabIntro: 

Gsus4 F Am7 C
E--------------------------------------------------------------|
B---8--------------6-------------5-----------------------------|
G-5---5-5-5-5-5-5----5-5-5-5-5-5---5-5-5-5-5-5--5--5-5-5-5-5-5-|
D--------------------------------------------------------------|
A--------------------------------------------------------------|
E--------------------------------------------------------------|

G4 F Am7 C
E-------------------------------------------------------------|
B-8---------------6---------------5---------------------------|
G----5-5-5-5-5-5-----5-5-5-5-5-5-----5-5-5-5-5-5--5-5-5-5-5-5-|
D-------------------------------------------------------------|
A-------------------------------------------------------------|
E-------------------------------------------------------------|

G4 F Am7 C
When I see him, I feel him.
E-------------------------------------|
B--------8vvvvv-6vvvvv-5vvvvv---------|
G------------------------------5vvvvv-|
D-------------------------------------|
A-------------------------------------|
E-------------------------------------|

G4 F Am7 C
There's an in-tens-ness in him, in his eyes.
E---------------------------------------------|
B-----------8vvvvv-6vvvvv-5vvvvv--------------|
G---------------------------------5-vvvvv-----|
D---------------------------------------------|
A---------------------------------------------|
E---------------------------------------------| tab

G4 F Am7 C
He wants me to be with him. He wants me with him now.
hide this tabHide tab
F Am7 G F Am7 G
////// // / He just seems to be miss-ing.
E----------------3-------------------------------------------------3-|
B--------------------------------------------------------------------|
G--------------4-------------------------------------------------4---|
D--------------------------------------------------------------------|
A--------------------------------------------------------------------|
E--------------------------------------------------------------------| tab

F Am7 G F Am7 G
How could that hap-pen any-how.

hide this tabHide tab Gsus4 F Am7 C
So how can you say, well, I don't know what love is?
E---3------------------------------------------------------|
B---3----------------------6------------------5------------|
G---4----------------------------------------------------5-|
D---4------------------------------------------------------|
A---3------------------------------------------------------|
E---3------------------------------------------------------|

Gsus4 F Am7 C
You haven't and you have no time for it.
E----3---------------------------------------------|
B----3-----------------6-------------5-------------|
G----4-------------------------------------------5-|
D----4---------------------------------------------|
A----3---------------------------------------------|
E----3---------------------------------------------| tab

C Gsus4 F Am7 C
You feel com-plete-ly in-dif-fer-ent.
C F Am7 G F Am7 G
You feel pushed up a-gainst the wall.
G F Am7 G F Am7 G
And then one day it just al-most goes a-way.
G F Am7 G F Am7 G
You spend lots of time a-lone. Some-times you spend years.
G F Am7 G Gsus4 F Am7 C C/D C
And you miss those arms
G Gsus4 F Am7 C C/D C
that used to go a-round you.
E----------------------------------------------------------|
B------------------------------8vvvvv-6vvvvv-5vvvvv--------|
G---------------------------------------------------5vvvvv-|
D----------------------------------------------------------|
A----------------------------------------------------------|
E----------------------------------------------------------|

C Am7 C
Night af-ter night no questions asked.
F C Am7 F Am7 C
Who cares. The cold wind of it all, ev'-ry-time.
C F C F Am7
Well, it's hard to be civ-il and it's real hard to be nice.
Am7 F G C
But you did it my love ev'-ry-time.

hide this tabHide tabLead Solo:
(starts a ev'-ry-)
E--------------------------------------------------------|
B-8vvvv5-8--8-5h6-5--5h6p5-------------------------------|
G--------------------------7-5--5h7p5--------------------|
D-------------------------------------7-5--7-7p5--7--7-5-|
A--------------------------------------------------------|
E--------------------------------------------------------|

E-----------------------------------------------------------|
B-8vvvv5-8--5-5h6-5--5h6p5----------------------------------|
G--------------------------7-5--5h7p5---------------------5-|
D-------------------------------------7-5--5-5h7-5------5---|
A--------------------------------------------------h7-7-----|
E-----------------------------------------------------------| tab

G4 F Am7 C
So how can you say well, I can't see you?
G4 F Am7 C
Not now, not to-mor-row, not un-til it's right.
C F Am7 G F Am7 G
Not un-til, none of us is pushed up a-gainst the wall.
F Am7 G F Am7 G
I don't know, the cold wind doesn't get you any-more.
hide this tabHide tab
G4 F Am7 C
E---------------------------|
B-8-------6-------5---------|
G-------------------------5-|
D---------------------------|
A---------------------------|
E---------------------------| tab

C G4 F Am7 C
So to-day she says well, I've changed my mind.
C G4 F Am7 C
That's a wo-man's right they say. Ahhhhhhhhh
C G4 F Am7 C
Well, I'm fright-ened and I'm lost and I can't give you up.
C F Am7 G F Am7 G
Not now, I need you now, I'm bro-ken hearted.
F Am7 G F Am7 G
Broke down like a lit-tle girl.
G F Am7 G F Am7 G
Well, I need you now. Well, I'm bro-ken hearted.
G F Am7 G F Am7 G
Well, I broke down like a lit-tle girl.
C Am7 C Am7
Need you now, no questions asked.
Am7 C Am7 C Am7 C Am7 C Am7 C Am7
Well, I broke down like a lit-tle girl.
C Am7 C Am7 C Am7
Need you now, no questions asked.
Am7 C Am7 C Am7 C Am7 C Am7 C Am7
I broke down like a lit-tle girl.
C Am7 C Am7 C Am7 C
Need you now, no questions asked.
C Am7 C
Ummmm I broke down like a lit-tle girl.
Am7 C
Like a lit-tle girl. R&F

Chord diagrams:
Gsus4(G4) F Am7 C G
334433 133211 002010 032010 355433

E,B,G,D,A,E, = guitar strings, vvv = vibrato, p = pull off, h = hammer on,
// = Play chords this many times at these points in throughout the song.


E,B,G,D,A,E

ACORDES PARA GUITARRA

PIANO UKELELE


COMENTARIOS

Aún no hay comentarios,

¡escribe el primero!

Escribe una pregunta, duda o comentario sobre esta canción, te responderemos a la brevedad.

Las más tocadas de Fleetwood Mac

Toca una Canción al Azar de Fleetwood Mac