Rondizzoni
Fother Muckers
Acordes

Subida por Rafaelwooft


Más Versiones
Ver. 2 Ver. 3

Cambiar Cifrado
Americano Latino

Cambiar Tonalidad
-1 +1

Partir Pantalla Imprimir FAQ

+A
-A


Ver solo la LETRA
No estaba así que me di la paja :3

-Intro 0:
1|-----3-----|
2|-------3---|
3|-3/4-----4-|
4|-----------|
5|-----------|
6|-----------|

-Intro:
C Dm
1|------7-8-7----/10--10-10--/12--12-12-|
2|-8-10-------10------------------------|
3|--------------------------------------|
4|--------------------------------------|
5|--------------------------------------|
6|--------------------------------------|(x2)

-Verso1
C Dm
No me digas lo que sientes
Em D#m Dm G
porque nada es para siempre.
C Dm
No me digas lo que sientes
Em D#m Dm G
porque nada es para siempre.

C Dm
1|------7-8-7----/10--10-10--/12--12-12-|
2|-8-10-------10------------------------|
3|--------------------------------------|
4|--------------------------------------|
5|--------------------------------------|
6|--------------------------------------|

-Verso2:
C Dm
Vi al nuevo presidente
Em D#m Dm G
durmiendo con las serpientes,
C Dm
como vi que despertaba
Em D#m Dm G
apuré una patada
C C C Cmaj7
po li ci aaaaah.....

Nexo:
Am Fm C

1|-------------------------------------------------|
2|---------------------------5/65-----------5/65-|
3|-------------------------------------------------|
4|-------------------------------------------------|
5|-0-2-3-5--3-5--7-7--7/87----------7/87---------|
6|-------------------------------------------------|
Am C Fmaj7/C C
1|---------------------------|
2|---------------------------|
3|---------------------------|
4|---------------------------|
5|-0-2-3-7----5-3-------2-3--|
6|---------------------------|

1|-1-----|
2|---0---|
3|-----2-|
4|-------|
5|-------|
6|-------|

Coro:
1|------------------------|
2|------------------------|
3|------------------------|
4|------------------2-5-2-|
5|-3-3-3-3-3-2-2-2--------|
6|------------------------|(x4 [hasta el Dm])


C Fmaj7/C Em
Cumplida al fin
Dm Dmmaj7 Dm7
la con de na
E Fm C C#maj7 G#
caminé por Rooooooondizzoni,

crucé el
1|-8--6--4-|
2|---------|
3|---------|
4|---------|
5|---------|
6|---------|

C#maj7 Dmaj7 C
parque O´Higgins.
Fmaj7/C Em Dm
LA fui A buscar
Dmmaj7 Dm7
y LA Abracé.
E Fm
Le dije:

-Verso1
C Dm
No me digas lo que sientes
Em D#m Dm G
porque nada es para siempre.
C Dm
No me digas lo que sientes
Em D#m Dm G
porque nada es para siempre.

1|------7-8-7----/10--10-10--/12--12-12-|
2|-8-10-------10------------------------|
3|--------------------------------------|
4|--------------------------------------|
5|--------------------------------------|
6|--------------------------------------|
(repetidas veces y el guaton se pega el solo y el bajón)

C Dm
¿Cuál es la necesidad?
Em D#m Dm G
¿Cuál es la necesidad?
C Dm
ay, pero ¿cuál es la necesidad?
Em D#m Dm G
dime tú ¿cuál es la necesidaaad?

C C C C
No me digas

1|-1-----|
2|---0---|
3|-----2-|
4|-------|
5|-------|
6|-------|

C
Ahhhhh

1|-1-----|
2|---0---|
3|-----2-|
4|-------|
5|-------|
6|-------|

C
Aaahh
C/G
1|-1-----1------1----------|
2|---0-----0------0--------|
3|-----2-----2------2------|
4|-------------------------|
5|-------------------------|
6|-------------------------|


Acorde Fmaj7/C:
1|---|
2|-1-|
3|-2-|
4|-3-|
5|-3-|
6|---|


ACORDES PARA GUITARRA

PIANO UKELELE
C
Dm
Em
D#m
G
Cmaj7
Am
Fm
Fmaj7/C
DmM7
Dm7
E
C#maj7
G#
Dmaj7
A
A
C/G


COMENTARIOS

Aún no hay comentarios,

¡escribe el primero!

Escribe una pregunta, duda o comentario sobre esta canción, te responderemos a la brevedad.

Las más tocadas de Fother Muckers

Toca una Canción al Azar de Fother Muckers
C
Dm
Em
D#m
G
Cmaj7
Am
Fm
Fmaj7/C
DmM7
Dm7
E
C#maj7
G#
Dmaj7
A
A
C/G