c ▷ TIRADO AL SOL: (Fother Muckers) Acordes para Guitarra, Piano & Ukelele

Tirado al sol (Acordes)

Fother Muckers

Subida por jeserodriguez

Compartir


Imprimir FAQ
+A
-A

Texto

Desplazamiento

Transportador

Color de Fondo

Archivos

-A
+A
--------------------------------------------------------------
INTRODUCCIÓN

E-|----------------------|
B-|-----8--10p8-----8----|
G-|---------------9------|
D-|----------------------| x20
A-|----------------------|
E-|----------------------|

En la 5ta empieza el rasgueo:

G  Bm  Em x4 (guitarra)
--------------------------------------------------------------
VERSO 1 (en bajo):

G         Bm         Em
El tiempo corre conmigo esta vez es
G              Bm            Em
lo que siempre quise y nunca nunca logré.
G       Bm               Em
Y ahora que la suerte al fin se me da
G         Bm            Em
mi cuerpo no responde a mi voluntad.

--------------------------------------------------------------
INTERLUDIO

   G         Bm   Em
E-|------------------------------12-12--|
B-|----10(11)10p8------8------8--12-12--|
G-|---------------9(10)--9(10)----------|
D-|-------------------------------------| x4
A-|-------------------------------------|
E-|-------------------------------------|

----------------------------------------------------------------
VERSO 1 (en bajo):

G         Bm           Em
Dame un minuto para entrar en calor
G         Bm             Em
no es tan fácil llegar y echarse a andar.
G         Bm           Em
Dame un minuto para entrar en calor,
G         Bm          Em
dame un minuto no puedes esperar.
--------------------------------------------------------------
PUENTE

   Cm
E-|-7/8-8--7/8-8--7/8-8--7/8-8---|
B-|-7/8-8--7/8-8--7/8-8--7/8-8---|
G-|-7/8-8--7/8-8--7/8-8--7/8-8---|
D-|------------------------------|
A-|------------------------------|
E-|------------------------------|

    F                     Fm
E-|-7/13-13-13-13-13-13--13-13-13-13-13-13-13-13-13-13-|
B-|-7/13-13-13-13-13-13--13-13-13-13-13-13-13-13-13-13-|
G-|-7/14-14-14-14-14-14--13-13-13-13-13-13-13-13-13-13-|
D-|----------------------------------------------------| x2
A-|----------------------------------------------------|
E-|----------------------------------------------------|

--------------------------------------------------------------
CORO

Cm                  Fm
Fue culpa mía el elegir
Cm                  F
partir en esta posición.

--------------------------------------------------------------
INTERLUDIO 2

   G         Bm   Em
E-|------------------------------12-12--|
B-|----10(11)10p8------8------8--12-12--|
G-|---------------9(10)--9(10)----------|
D-|-------------------------------------| x3
A-|-------------------------------------|
E-|-------------------------------------|


   G         Bm   Em
E-|-------------------------------------|
B-|----10(11)10p8------8------8------8--|
G-|---------------9(10)--9(10)--9(10)---|
D-|-------------------------------------|
A-|-------------------------------------|
E-|-------------------------------------|

--------------------------------------------------------------
VERSO 1 (en bajo):


    G     Bm             Em
E-|-0---15--------12-------------12-----|
B-|-------------------------------------|
G-|-------------------------------------|
D-|-------------------------------------|
A-|-------------------------------------|
E-|-------------------------------------|
   Acaso tu nunca has hablado de más

   G        Bm           Em
E-|----12--15--------12-----------------|
B-|-------------------------------------|
G-|-------------------------------------|
D-|-------------------------------------|
A-|-------------------------------------|
E-|-------------------------------------|
   Déjame decirte no se siente nada bien

   G         Bm           Em
E-|0---------15-----12------------------15|
B-|---------------------------------------|
G-|---------------------------------------|
D-|---------------------------------------|
A-|---------------------------------------|
E-|---------------------------------------|
   Dame un minuto para entrar en calor voy

   G            Bm            Em
E-|12-0-----15------12-15-----------------12-15-12---|
B-|-----------------------------------15-------------|
G-|--------------------------------------------------|
D-|--------------------------------------------------|
A-|--------------------------------------------------|
E-|--------------------------------------------------|
   a limpiar mi nombre y a salvar el honor.

--------------------------------------------------------------
PUENTE

   Cm
E-|-7/8-8--7/8-8--7/8-8--7/8-8---|
B-|-7/8-8--7/8-8--7/8-8--7/8-8---|
G-|-7/8-8--7/8-8--7/8-8--7/8-8---|
D-|------------------------------|
A-|------------------------------|
E-|------------------------------|

    F                     Fm
E-|-7/13-13-13-13-13-13--13-13-13-13-13-13-13-13-13-13-|
B-|-7/13-13-13-13-13-13--13-13-13-13-13-13-13-13-13-13-|
G-|-7/14-14-14-14-14-14--13-13-13-13-13-13-13-13-13-13-|
D-|----------------------------------------------------| x4
A-|----------------------------------------------------|
E-|----------------------------------------------------|

--------------------------------------------------------------
CORO

Cm                  Fm
Fue culpa mía el elegir
Cm                  F
partir en esta posición.

--------------------------------------------------------------
VERSO 2

G#
Si por mi fuera estaría tirado al sol
A
Si por mi fuera estaría tirado al sol
A#                                  G
Si por mi fuera estaría tirado al sol

--------------------------------------------------------------
SOLO GUITARRA

   G              Bm         Em                      G
E-|-12(13)-12(13)12p10-----------12---------------------|
B-|--------------------12-12(13)----12p10p8-10-8--------|
G-|----------------------------------------------9-7-9--|
D-|-----------------------------------------------------|
A-|-----------------------------------------------------|
E-|-----------------------------------------------------|

         Bm        Em                         G
E-|------------------10--10-10--10-10--10-10--10-10-10-10-10-10-10-|
B-|---8-10-8-10-10(12)---12-12--12-12--12-12--12-12-12-12-12-12-12-|
G-|-9--------------------------------------------------------------|
D-|----------------------------------------------------------------|
A-|----------------------------------------------------------------|
E-|----------------------------------------------------------------|
   Bm            Em        G   Bm   Em
E-|-----------------------------------------------------|
B-|-12p10p8-10-8--------------------8---8---------------|
G-|--------------9-9-9-9---9-9-99-9---9---9-------------|
D-|-----------------------------------------------------|
A-|-----------------------------------------------------|
E-|-----------------------------------------------------|
     G   Bm   Em          G   Bm  Em
E-|-----------------------------------------------------|
B-|--5-5-5-5--5-55555555--5-5-5-5-8--5-8p5--5-8p5--5-8p5|
G-|--7-7-7-7--4-44444444--7-7-7-7-----------------------|
D-|-----------------------------------------------------|
A-|-----------------------------------------------------|
E-|-----------------------------------------------------|

     G   Bm   Em                 G      Bm    Em
E-|------------------------------8-----------------------------|
B-|--5-5-5-5--5-5-5-5-5--5-5-5---12(13)-12-10-8-------10-8---10|
G-|--7-7-7-7--4-7-7-7-7--4-4-4------------------9-99-------9---|
D-|------------------------------------------------------------|
A-|------------------------------------------------------------|
E-|------------------------------------------------------------|

   Em
E-|----------------------|
B-|-----8--10p8-----8----|
G-|---------------9------|
D-|----------------------| x6
A-|----------------------|
E-|----------------------|

--------------------------------------------------------------
OUTRO

   Em (bajo)
E-|------------------------------------------------------------------|
B-|-----8--10p8---8----8--10p8---8----8--10p8---8----8--10p8---8-----|
G-|-------------9--------------9--------------9--------------9-------|
D-|------------------------------------------------------------------|
A-|------------------------------------------------------------------|
E-|------------------------------------------------------------------|

   Em
E-|------------------------------------------------------------------|
B-|-----8--10p8---8----8--10p8---8----8--10p8---8----8--10p8---8-----|
G-|-------------9--------------9--------------9--------------9-------|
D-|------------------------------------------------------------------|
A-|------------------------------------------------------------------|
E-|------------------------------------------------------------------|

   A
E-|------------------------------------------------------------------|
B-|-----8--10p8---8----8--10p8---8----8--10p8---8----8--10p8---8-----|
G-|-------------9--------------9--------------9--------------9-------|
D-|------------------------------------------------------------------|
A-|------------------------------------------------------------------|
E-|------------------------------------------------------------------|

   Em
E-|------------------------------------------------------------------|
B-|-----8--10p8---8----8--10p8---8----8--10p8---8----8--10p8---8-----|
G-|-------------9--------------9--------------9--------------9-------|
D-|------------------------------------------------------------------|
A-|------------------------------------------------------------------|
E-|------------------------------------------------------------------|

   A
E-|------------------------------------------------------------------|
B-|-----8--10p8---8----8--10p8---8----8--10p8---8----8--10p8---8-----|
G-|-------------9--------------9--------------9--------------9-------|
D-|------------------------------------------------------------------|
A-|------------------------------------------------------------------|
E-|------------------------------------------------------------------|

   Em
E-|------------------------------------------------------------------|
B-|-----8--10p8---8----8--10p8---8----8--10p8---8----8--10p8---8-----|
G-|-------------9--------------9--------------9--------------9-------|
D-|------------------------------------------------------------------|
A-|------------------------------------------------------------------|
E-|------------------------------------------------------------------|

   A
E-|------------------------------------------------------------------|
B-|-----8--10p8---8----8--10p8---8----8--10p8---8----8--10p8---8-----|
G-|-------------9--------------9--------------9--------------9-------|
D-|------------------------------------------------------------------|
A-|------------------------------------------------------------------|
E-|------------------------------------------------------------------|

   Em
E-|------------------------------------------------------------------|
B-|-----8--10p8---8----8--10p8---8----8--10p8---8----8--10p8---8-----|
G-|-------------9--------------9--------------9--------------9-------|
D-|------------------------------------------------------------------|
A-|------------------------------------------------------------------|
E-|------------------------------------------------------------------|

   A
E-|------------------------------------------------------------------|
B-|-----8--10p8---8----8--10p8---8----8--10p8---8----8--10p8---8-----|
G-|-------------9--------------9--------------9--------------9-------|
D-|------------------------------------------------------------------|
A-|------------------------------------------------------------------|
E-|------------------------------------------------------------------|

   Em                               G
E-|------------------------------------------------------------------|
B-|-----8--10p8---8----8--10p8---8----8--10p8---8----8--10p8---8-----|
G-|-------------9--------------9--------------9--------------9-------|
D-|------------------------------------------------------------------|
A-|------------------------------------------------------------------|
E-|------------------------------------------------------------------|

   A                               Am
E-|------------------------------------------------------------------|
B-|-----8--10p8---8----8--10p8---8----8--10p8---8----8--10p8---8-----|
G-|-------------9--------------9--------------9--------------9-------|
D-|------------------------------------------------------------------|
A-|------------------------------------------------------------------|
E-|------------------------------------------------------------------|

   Em                               G
E-|------------------------------------------------------------------|
B-|-----8--10p8---8----8--10p8---8----8--10p8---8----8--10p8---8-----|
G-|-------------9--------------9--------------9--------------9-------|
D-|------------------------------------------------------------------|
A-|------------------------------------------------------------------|
E-|------------------------------------------------------------------|

   A                               Am
E-|------------------------------------------------------------------|
B-|-----8--10p8---8----8--10p8---8----8--10p8---8----8--10p8---8-----|
G-|-------------9--------------9--------------9--------------9-------|
D-|------------------------------------------------------------------|
A-|------------------------------------------------------------------|
E-|------------------------------------------------------------------|

   Em                               G
E-|------------------------------------------------------------------|
B-|-----8--10p8---8----8--10p8---8----8--10p8---8----8--10p8---8-----|
G-|-------------9--------------9--------------9--------------9-------|
D-|------------------------------------------------------------------|
A-|------------------------------------------------------------------|
E-|------------------------------------------------------------------|

   A                               Am
E-|------------------------------------------------------------------|
B-|-----8--10p8---8----8--10p8---8----8--10p8---8----8--10p8---8-----|
G-|-------------9--------------9--------------9--------------9-------|
D-|------------------------------------------------------------------|
A-|------------------------------------------------------------------|
E-|------------------------------------------------------------------|

   Em                               G
E-|------------------------------------------------------------------|
B-|-----8--10p8---8----8--10p8---8----8--10p8---8----8--10p8---8-----|
G-|-------------9--------------9--------------9--------------9-------|
D-|------------------------------------------------------------------|
A-|------------------------------------------------------------------|
E-|------------------------------------------------------------------|

   A                               Am
E-|------------------------------------------------------------------|
B-|-----8--10p8---8----8--10p8---8----8--10p8---8----8--10p8---8-----|
G-|-------------9--------------9--------------9--------------9-------|
D-|------------------------------------------------------------------|
A-|------------------------------------------------------------------|
E-|------------------------------------------------------------------|

                 Em                             Em
E-|------------------------------------------------------------------|
B-|-----8--10p8---8----8--10p8---8----8--10p8---8----8--10p8---8-----|
G-|-------------9--------------9--------------9--------------9-------|
D-|------------------------------------------------------------------|
A-|------------------------------------------------------------------|
E-|------------------------------------------------------------------|

                 Em                             Em
E-|------------------------------------------------------------------|
B-|-----8--10p8---8----8--10p8---8----8--10p8---8----8--10p8---8-----|
G-|-------------9--------------9--------------9--------------9-------|
D-|------------------------------------------------------------------|
A-|------------------------------------------------------------------|
E-|------------------------------------------------------------------|

E-|------------------------------------|
B-|-----8--10p8---8--------------------|
G-|-------------9---9p7h9p7---7--------|
D-|-------------------------9---9------|
A-|-------------------------------10-7-|
E-|------------------------------------|


G: 355433
Bm: 799777
Em: X79987
Cm: X35543
F: X81010108
Fm: X8101098
G#: 466544
A: 577655
A#: 688766


iann_carlo@hotmail.com


Video Clip de Tirado al sol


ACORDES PARA GUITARRA

PIANO UKELELE
G
Bm
Em
Cm
F
Fm
B
G#
A
A#
Am


TOP 20: Las más tocadas de Fother Muckers


Acordes

Cerrar
G
Bm
Em
Cm
F
Fm
B
G#
A
A#
Am

17.41

x

101