Compartir


Cambiar Cifrado
Americano Latino

Cambiar Tonalidad
-1 +1
Imprimir FAQ
+A
-A

Texto

Desplazamiento

Transportador

Color de Fondo

Archivos

-A
+A
Riff:

   E5     Bb5
|--------------|
|--------------|
|--------------|
|---2-----8----|
|---2-----8----|
|---0-----6----|



Punteíto:

|-------------------------------------------------------|
|-------------------------------------------------------|
|-------------------------------------------------------|
|-------------------------------------------------------|
|--7-6---------7-6-------7-6---------7-10---------------|
|-------5-6-5------5-6-5-----5-6-5----------------------|

|-------------------------------------------------------|
|-------------------------------------------------------|
|-------------------------------------------------------|
|------------------------------------------8-11-10------|
|--7-6---------7-6-------7-6---------7-10---------------|
|-------5-6-5------5-6-5-----5-6-5----------------------|


(En las estrofas se puede tocar el riff o los acordes indicados)

Em
Cara de niña suave que detectar no sabe

G
deja que entre un poco te toco

Em
Me mueve la sensación de hambre

Em
que gobierna en mí hoy mi sangre

G
Quiero como un gorila tu vida

C#m                        Cm
Toco con parches rotos me muestro solo un poco

Bbm                                                Am
Hondo me arrastra tu hombro podríamos chequear el fondo de nuestro escombro


Repite Riff y Punteíto.


Em                                           G
Lejos de estar sufriendo yo te propongo una salida para tu vida

Em
Alto lo que escalamos

Em                    G
En la escalera de la tumba lo que anhelamos

C#m
Hambre grita hambre

Cm
Fluye por la sangre

Bbm
Hondo me arrastra tu hombro

                       Am
Podríamos chequear el fondo de nuestro escombro


Riff

El gorila, te toco... El gorila, te toco...


C#m      Fm     Dm     Em
La sangre puede despertar

Bm          Bbm       Am
   las venas y los recuerdos


C#m      Fm     Dm       Em
La sangre puede despertar

Bm          Bbm       Am
   las venas y los recuerdos



Riff

El gorila, te toco...


Video Clip de El gorila


ACORDES PARA GUITARRA

PIANO UKELELE
E5
Bb5
Em
G
C#m
Cm
Bbm
Am
Fm
Dm
Bm


TOP 20: Las más tocadas de Francisco Bochaton


Acordes

Cerrar
E5
Bb5
Em
G
C#m
Cm
Bbm
Am
Fm
Dm
Bm

20.01

x

78