Compartir


Cambiar Cifrado
Americano Latino

Cambiar Tonalidad
-1 +1
Imprimir FAQ
+A
-A

Texto

Desplazamiento

Transportador

Color de Fondo

Archivos

-A
+A
Cm      G         B          Em           Am
Tu amor no perdona su luz arrastra la ola

          Dm
Encuéntralo

Em
  Tu imaginación

             Am
baja por el cielo hasta el suelo

Em                            Am
La hermosa canción sale del misterio


al recuerdo


Cm       G
Tu amor no perdona

B           Em
  su luz arrastra la ola

Am         Dm
   Encuéntralo




PUENTE:  La guitarra se queda haciendo estos acordes... Em / Am
         y suenan estos punteos alternados:

A) Sobre Em y Am

|-----------7----------5------------------------|
|--5--5--8------5---8------5--7--8--7--5--7-----|
|-----------------------------------------------|
|-----------------------------------------------|
|-----------------------------------------------|
|-----------------------------------------------|


B) Sobre Am

|-------------------------------------|
|--3-1---------4--5-------------4--5--|
|---------2--5---------2--2--5--------|
|-------------------------------------|
|-------------------------------------|
|-------------------------------------|




Em                          Am
  Seríamos dos ante la esperanza

del mundo

Em                                Am
  Comienza a llegar la vida nos deja


desnudos

Cm        G        B          Em
Tu amor no perdona su luz arrastra la ola

Am            Dm
  Encuéntralo



Repite PUENTE y Estribillo


Video Clip de Tu amor no perdona


ACORDES PARA GUITARRA

PIANO UKELELE
Cm
G
B
Em
Am
Dm
A


TOP 20: Las más tocadas de Francisco Bochaton


Acordes

Cerrar
Cm
G
B
Em
Am
Dm
A

00.16

x

95