Compartir


Cambiar Cifrado
Americano Latino

Cambiar Tonalidad
-1 +1
Imprimir FAQ
+A
-A

Texto

Desplazamiento

Transportador

Color de Fondo

Archivos

-A
+A
[Intro]

   D           Bm                    D           Bm
e|-------0-2-----------2-0-----------------0-2-----------2-0--------|
B|-----3-------------0-----3-0-----------3-------------0-----3-0----|
G|---2---------2-1---------------------2---------2-1----------------|
D|-0---------------------------------0------------------------------|
A|------------------------------------------------------------------|
E|------------------------------------------------------------------|

G  A  F#    )

Bm G  A  F# ) x2

         Bm G               A                  F#
En la mañana tus ojos te miran, quieren reconocer
   Bm   G                A                 F#
el alma, con cara de querer saber un poco más,
    Bm          G                    A                   F#
gravita el alba, que muestra una ciudad con casas de verdad,
    Bm         G          A
donde descansas para tu bien.

         D     A             Bm         A
Y esperará, dará una vuelta más sin mí.
Me llevará dormido en su rincón de luz.
Y llorará sobre el dibujo que hizo fiel, que ama.

En la mañana tus ojos te miran, quieren reconocer el alma
con cara de querer saber un poco más, gravita el alba.
Que muestra una ciudad con casas de verdad donde descansas para tu bien.

Y esperará, dará una vuelta más sin mí.
Me llevará dormido en su rincón de luz.
Y llorará sobre el dibujo que hizo fiel,
    D   Bm
que ama.

Que ama... (x4)


   D   Bm  G   A   F#  D
e|-2---2---3---5---2---5--|
B|-2---3---3---5---2---7--|
G|-2---4---4---6---3---7--|
D|-0---4---5---7---4---7--|
A|-----2---5---7---4---5--|
E|---------3---5---2------|

Fran rulea!


Video Clip de Gravita el alba


ACORDES PARA GUITARRA

PIANO UKELELE
D
Bm
G
A
F#


TOP 20: Las más tocadas de Francisco Bochaton


Acordes

Cerrar
D
Bm
G
A
F#

19.31

x

98