Compartir


Cambiar Cifrado
Americano Latino

Cambiar Tonalidad
-1 +1
Imprimir FAQ
+A
-A

Texto

Desplazamiento

Transportador

Color de Fondo

Archivos

-A
+A
INTRO | Am | G | F | C |

Melodía de Saxo
  Am                  G                  F           C
e|-------------------|-----------------|-----------|---------------|
B|-5--------5------5-|---------6-5-----|5----------|5--------------|
G|------5-7------5---|7------------7-5-|---------5-|--7-5----------|
D|----7--------7-----|-----------------|-------7---|---------------|
A|-------------------|-----------------|-----------|---------------|
E|-------------------|-----------------|-----------|---------------|
  Am                  G                  F           C
e|-------------------|-----------------|-----------|---------------|
B|-5--------5------5-|---------6-5-----|5----------|5--------------|
G|------5-7------5---|7------------7-5-|---------5-|--7-5-7-5------|
D|----7--------7-----|-----------------|-------7---|---------------|
A|-------------------|-----------------|-----------|---------------|
E|-------------------|-----------------|-----------|---------------|


   Am               G                   F
      En la blanda pasta de un pasado viernes
             C
      se derrite el mar
   Am            G                 F
      tu figura busca algun escarabajo
            C
      a donde encajar

      las cortinas saben del atardecer
      su mejor color
      a través del cuarto las espinas quietas
      se despediran

Bb           C          F
      Los poderes colmarán tu muerte
Ab         G             F
      las sombras no te espiaran más
Bb           C          F
      Las paredes llenarán al sol
Ab           G              F
      Las sombras son de alguien
Ab           Bb              C       (al final en vez de C es Am)
      las sombras son de alguien


      Victimas que acelaran en la esquina muerta
      de la luz
      las paredes quietas llenan los espacios
      hasta ver
      en las tumbas que florecen los reflejos
      llegan hasta vos
      los insectos corren por la habitación
      en un carnaval


Video Clip de Los poderes


ACORDES PARA GUITARRA

PIANO UKELELE
Am
G
F
C
Bb
Ab


TOP 20: Las más tocadas de Francisco Bochaton


Acordes

Cerrar
Am
G
F
C
Bb
Ab

23.47

x

97