If Your Poison Gets You
Frank Black
Acordes

Subida por raquelsb
Álbum: Fast Man Raider Man ( 2006)



Cambiar Cifrado
Americano Latino

Cambiar Tonalidad
-1 +1

Partir Pantalla Imprimir FAQ

+A
-A
Album: Fastman Raiderman
Tabbed by: ProverbialCereal


[verse]

(repeated riff)
e--5--1---------5--1---------------------------|
B----------------------------------------------|
G----------------------------------------------|
D--3--0---------3--0-------0--3--2--0--3--2----|
A----------------------------------------------|
E----------------------------------------------|

we heard it all in halls of pain
it wasn't good
there was a call, in baggage claim
it wasn't good
she had a hunch, it was't lunch
it wasn't good

(last time)
e--5--1-----------5--1-------------------------------1--|
B-------------------------------------------------1--1--|
G-------------------------------------------------0--2--|
D--3--0-----------3--0-------------0--3--2--0--3--2--3--|
A-------------------------------------------------3--3--|
E----------------------------------------------------1--|
C F
I drove a spike into the punch, it wasn't good


[chorus]
F Dm Bb
heaven's boys protect you
C F
i am almost there
Dm Bb
if your poison gets you
C F
i will be on time
Dm Bb
if you sink to madness
C F
say a little pray
Dm Bb
if your poison gets you
C
i am down the line


[break]

e--------------------------------|
B--------------------------------|
G--------------------------------|
D--0--3--2--0--3--2--0---3--2----|
A--------------------------------|
E--------------------------------|

back to verse 1 progression. Play thru 1x over solo.


[verse 2] - same riff (guitar left plays Dm on almost every downbeat)

now once again to halls of pain
when will it end?
god's machines say it's your genes
when will it end?
why has thou forsaken me, again and again?
you always said "when will it end?"
when will it end?


[chorus] - same chords

heaven's boys protect you
i am almost there
if your poison gets you
i will be on time
if you sink to madness
say a little pray
if your poison gets you
i am down the line


D--0--3--2--0--3--
C chord


end riff
e-------------------------------1---|
B---------------------------1---3---|
G---------------------------0---2---|
D--0--3--2--0--3--2--0---3--2---0---|
A---------------------------3-------|
E-----------------------------------|
C Dm


______________________________________________________________

recommended chord formations:

e------0---1----1--|
B--3---1---3----1--|
G--3---0---2----2--|
D--3---2---0----3--|
A--1---3--------3--|
E---------------1--|
Bb C Dm F

ACORDES PARA GUITARRA

PIANO UKELELE


COMENTARIOS

Aún no hay comentarios,

¡escribe el primero!

Escribe una pregunta, duda o comentario sobre esta canción, te responderemos a la brevedad.

Las más tocadas de Frank Black

Toca una Canción al Azar de Frank Black