Man Of Steel
Frank Black
Acordes

Subida por SILVIACANTU



Cambiar Cifrado
Americano Latino

Cambiar Tonalidad
-1 +1

Partir Pantalla Imprimir FAQ

+A
-A
From the album Songs in the key of X
©1996 Warner Bros. Records Inc
Tabbed By Scott Wright ([email protected]*)


[INTRO]

E-------------|
B--0-0-0-0-0--|
G--0-2-3-2-0--|
D-------------|
A-------------|
e-------------|

Play this part before you play each of the following chords:

Em, A, Em, Em, Em, A, Em, Em

and then play G, Bb, G#

Em G C E Em
E-0-0-0-0--0-0-0-0--0-0--0-0-0-0--0-0-0---0--|
B-0-0-1-0--3-3-5-3--0-1--1-1-3-5--0-0-0---0--|
G---------------------------------1-1-1---0--|
D---------------------------------2-2-2---2--|
A---------------------------------2-2-2---2--|
e---------------------------------0-0-0---0--|

E------15------14--12----------12-------------|
B--12------12----------12--13------------13---|
G-------------------------------------12------|
D----------------------------------12---------|
A---------------------------------------------|
E---------------------------------------------|


Em G
Under the stars each night
C Em D
I wonder do stairs go there
G G/F# C C/B Em
I'm Lonely driving behind the wheel
Em G
I can't get nowhere
C Em D
I can't seem to get it right
G G/F# C C/B Em
I'm only just a man of steel

Em G C E Em
E-0-0-0-0--0-0-0-0--0-0--0-0-0-0---0-0-0--0--|
B-0-0-1-0--3-3-5-3--0-1--1-1-3-5---0-0-0--0--|
G----------------------------------1-1-1--0--|
D----------------------------------2-2-2--2--|
A----------------------------------2-2-2--2--|
e----------------------------------0-0-0--0--|

E------15------14--12----------12--------------------|
B--12------12----------12--13------------13---12-----|
G-------------------------------------12---------12--|
D----------------------------------12----------------|
A----------------------------------------------------|
E----------------------------------------------------|

E------15------14--12----------12-------------|
B--12------12----------12--13------------13---|
G-------------------------------------12------|
D----------------------------------12---------|
A---------------------------------------------|
E---------------------------------------------|
Is there a place?


Em G
And under the stars tonight
C Em D
I wonder if someone cares
G G/F# C C/B Em
I'm lonely thats the way I feel
Em G
Can't feel no stares
C Em D
I've gotten a real ad-heist
G G/F# C C/B Em
I'm only just a man of steel

E-------------|
B--0-0-0-0-0--|
G--0-2-3-2-0--|
D-------------|
A-------------|
e-------------|

Play this before each of the following chords:

A, Em, Em, Em, A, Em, Em

and then play G, Bb, G#


G C D G
E------15------14--12----------12--------------------|
B--12------12----------12--13------------13---12-----|
G-------------------------------------12---------12--|
D----------------------------------12----------------|
A----------------------------------------------------|
E----------------------------------------------------|

C D G
E------15------14--12----------12--------------------|
B--12------12----------12--13------------13---12-----|
G-------------------------------------12---------12--|
D----------------------------------12----------------|
A----------------------------------------------------|
E----------------------------------------------------|
(repeat alot of times)

there is a place
there is a place
there is a place
there is a place ... etc.


________________________________________________________
G/F# C/B
e-----------|
b-----------|
g--0-----0--|
d--0-----0--|
a--------2--|
e--2--------|

slash chords, and main riff corrected by derek

ACORDES PARA GUITARRA

PIANO UKELELE


COMENTARIOS

Aún no hay comentarios,

¡escribe el primero!

Escribe una pregunta, duda o comentario sobre esta canción, te responderemos a la brevedad.

Las más tocadas de Frank Black

Toca una Canción al Azar de Frank Black