Good And Gone (Acordes)

Frank Turner

Subida por KAteKing

Compartir


Cambiar Cifrado
Americano Latino

Cambiar Tonalidad
-1 +1
Imprimir FAQ
+A
-A

Texto

Desplazamiento

Transportador

Color de Fondo

Archivos

TONALIDAD, TAMAÑO, CIFRADO, SCROL.

Nos renovamos: Ahora puedes cambiar TODO haciendo clic en ICONO de la Guitarra () que aparece en la parte inferior de esta página.


LETRA CON ACORDES

Frank Turner - Good and Gone


-KEY-

~ = ring out

-CHORDS-

          EADGBe
C         x32013
C/G       3x2013
Csus4     x33013
D7sus4    3x0213
Dadd9/G   3x4230
G         3x0003
Gsus4     3x0013

-RIFFS-

C/G Riff
e|---3~------------------3-------------------3-------------------3----------------------|
B|---1~--------1-------------------1-------------------1------------------1-------------|
G|---0~-----0------0------------0------0------------0------0-----------0------0-----0---|
D|---2~--2------------2------2------------2------2------------2-----2------------2------|
A|--------------------------------------------------------------------------------------|
E|---3~---------------------------------------------------------------------------------|

Dadd9/G Riff
e|---0~------------------0-------------------0-------------------0----------------------|
B|---3~--------3-------------------3-------------------3------------------3-------------|
G|---2~-----2------2------------2------2------------2------2-----------2------2-----2---|
D|---4~--4------------4------4------------4------4------------4-----4------------4------|
A|---0~---------------------------------------------------------------------------------|
E|--------------------------------------------------------------------------------------|

G Riff
e|---3~--------3------------------3------------|
B|---0~------------------0---------------------|
G|---0~-----0------0-----------0-----0-----0---|
D|---0~--0------------0-----0-----------0------|
A|---------------------------------------------|
E|---3~----------------------------------------|

Gsus4 Riff
e|---3---3---3---3---3---3---3---3---3---3---3---3---|
B|---1---1---1---1---1---1---1---1---1---1---1---1---|
G|---2---0---0---2---0---0---2---0---0---2---0---0---|
D|---0---0---2---0---0---2---0---0---2---0---0---2---|
A|---------------------------------------------------|
E|---3---3---3---3---3---3---3---3---3---3---3---3---|



-INTRO-

Gsus4 G riff

-VERSE-

       Gsus4 riff
I have searched for you
       G riff                    Gsus4 riff
In the darkness of a dozen dingy dancefloors
   G riff                           Gsus4 riff
In countless queues of cafes in the suburbs
       G riff                             Gsus4 riff  G riff
In the bedclothes of a thousand strangers bedrooms

           Gsus4 riff
And I have yearned for you
       G riff                        Gsus4 riff
In the airless Hubs of international airports
       G riff                      Gsus4 riff
In the hollow hell of many hundred hotels
       G riff                    Gsus4 riff
In the solitary stillness of the early hours
            G riff
And I still do

-CHORUS-

Csus4
Sometimes the things you need
    C                         Gsus4 riff  G riff
Are right back where you started from

-VERSE-

              Gsus4 riff
So, fuck you, Hollywood
    G riff                             Gsus4 riff
For teaching us that love was free and easy
    G riff                        Gsus4 riff
For dressing all our daughters as princesses
    G riff                         Gsus4 riff  G riff
For gulling us with tales of happy endings

              Gsus4 riff
And fuck you, Motley Crue
    G riff                           Gsus4 riff
For charming us with access and with excess
    G riff                               Gsus4 riff
For telling tales that leave out all the dark sides
    G riff                           Gsus4 riff
For bringing out the lowest drive in everyone
         G riff
Oh, fuck you

-CHORUS-

Csus4
Sometimes the things you need
    C                         Gsus4 riff  G riff
Are right back where you started from
Csus4
Sometimes the things you need
     C
They hang around a little while
             Gsus4 riff    G riff Dadd9/G riff
Then they're good and gone

-BRIDGE-

           C/G riff               Dadd9/G riff
If I could just have a second try
             C/G riff                        Dadd9/G riff
I'd take the second call you made that night
                               C/G
Find myself an airport, find a credit card
                                                    G
Find a flight or something and I'd head back to the start

-CHORUS-

Csus4
Sometimes the things you need
    C                         Gsus4 riff  G
Are right back where you started from

Csus4
Sometimes the things I need
     C
They hang around a little while
             Gsus4 riff    G
Then they're good and gone

            Gsus4 riff    G~
Yes they're good and gone

Video Clip de Good And Gone


ACORDES PARA GUITARRA

PIANO UKELELE
C
C/G
Csus4
D7sus4
G
Gsus4


TOP 20: Las más tocadas de Frank Turner


Acordes

Cerrar
C
C/G
Csus4
D7sus4
G
Gsus4

06.01


323