Arquitectura Moderna
Fricción
Acordes

Subida por Lecteer
Álbum: Consumación o consumo ( 1986)


Más Versiones
Ver. 2 Ver. 3

Cambiar Cifrado
Americano Latino

Cambiar Tonalidad
-1 +1

Partir Pantalla Imprimir FAQ

+A
-A


Ver solo la LETRA
INTRO:

DO#m
E----------------4--------------------
B------5-4-----7---7-------5-4-----4--
G----------4-------------------4------ (2 VECES)
D----6-------6-----------6-------6----
A--4-------------------4--------------
E-------------------------------------

LA#m
E----------------1--------------------
B------2-1-----4---4-------2-1-----1--
G----------1-------------------1------
D----3-------3-----------3-------2---- (2 VECES)
A--1-------------------1--------------
E-------------------------------------

Con teclado
DO#m
C# G# E D# B G# F# G# F# C# G# E D# B G# D# (2 VECES)
LA#m
A# F C# C G# F D# F D# A# F C# C G# F C (2 VECES)

DO#m LA#m
Ya no hay metales... en mis ojos
Caen... cuando pretendo olvidar
Sólo veo clones... con tu rostro
Voy a sumergirme en un mar

ESTRIBILLO
MI FA#m DO#m
Arquitectura moderna, arquitectura moderna
Arquitectura moderna, arquitectura moderna
DO#m SI DO#
Arte Funcional...

Ahora mi cerebro... ya no flota
Blanco, blanco, blanco frío... Terminal!!
Sólo veo clones... con tu rostro

ESTRIBILLO

Un tema difícil para el oído, pero toda una obra maestra!
Espero q les sea útil! Aguante Fricción!
Dudas: [email protected]
Chau...


ACORDES PARA GUITARRA

PIANO UKELELE
C#m
A#m
C#
G#
E
D#
B
F#
A#
F
C
E
F#m
B
C#


COMENTARIOS

Aún no hay comentarios,

¡escribe el primero!

Escribe una pregunta, duda o comentario sobre esta canción, te responderemos a la brevedad.

Las más tocadas de Fricción

Toca una Canción al Azar de Fricción
C#m
A#m
C#
G#
E
D#
B
F#
A#
F
C
E
F#m
B
C#