Lluvia Negra
Fricción
Acordes

Subida por JesusMiguelBrizuela
Álbum: Para terminar ( 1988)


Más Versiones
Ver. 2 Ver. 3

Cambiar Cifrado
Americano Latino

Cambiar Tonalidad
-1 +1

Partir Pantalla Imprimir FAQ

+A
-A


Ver solo la LETRA
LLUVIA NEGRA

INTRO: G - Bm

G Bm
e|---5-2---------5-2---------7---6-7-|
B|-------3---3-------3---3-----7-----|
G|---------4-----------4-------------| Riff 1
D|-5-----------5-----------9---------|
A|-----------------------------------|
E|-----------------------------------|

G Bm
Estoy otra vez, mirando mis pies sobre la tierra
empiezo a creer que no hay tantas formas de inocencia
la voy a rescatar... cuando te acerques a mí
la puedo arriesgar... para que vengas

D C
Serás refugio
serás la tormenta
presiento nubes de lluvia negra
¿habrá refugios en esta tormenta
bajo dos nubes de lluvia negra?

Riff 1

G Bm
Mirando correr...agua sucia entre las piedras
no quiero volver...hay barro, hay decadencia
podría resbalar...si no estuvieras aquí
me puedo arriesgar...para que vengas

D C
Serás refugio
serás la tormenta
presiento nubes de lluvia negra
¿habrá refugios en esta tormenta
bajo dos nubes de lluvia negra?

D Em F G D Em F G D Em F
e|--------------------------------------------------------8-7------10-|
B|-----------------8-6-------------------8-6---------10-8-----8-10----|
G|-7---7-9-7-6-7-------9-7---7-9-7-6-7-------9-5-6-7------------------|
D|---7-----------7---------7-----------7------------------------------|
A|--------------------------------------------------------------------|
E|--------------------------------------------------------------------|

G D Em F
e|-8-7--------12-10-------------15-13-12-------19s23-|
B|-----8-10---------13-12-13-------------13-15-------|
G|----------9----------------12----------------------|
D|---------------------------------------------------|
A|---------------------------------------------------|
E|---------------------------------------------------|

D C
Como siempre aquí lluvia negra
como siempre aquí bajo la tormenta
como siempre aquí lluvia negra
como siempre aquí bajo la tormenta

C D Em D Em F G
e|-------------------------------------------------|
B|----------------------------12-10-14-12-13-12-15-|
G|-10-12-10-14-10-12-10-14-12----------------------|
D|-------------------------------------------------|
A|-------------------------------------------------|
E|-------------------------------------------------|

D C
Lluvia negra
Lluvia negra
Lluvia negra
¿Habrá refugios?
¿Habrá refugios?


ACORDES PARA GUITARRA

PIANO UKELELE
G
Bm
D
C
Em
F


COMENTARIOS

Aún no hay comentarios,

¡escribe el primero!

Escribe una pregunta, duda o comentario sobre esta canción, te responderemos a la brevedad.

Las más tocadas de Fricción

Toca una Canción al Azar de Fricción
G
Bm
D
C
Em
F