Compartir


Cambiar Cifrado
Americano Latino

Cambiar Tonalidad
-1 +1
Imprimir FAQ
+A
-A

Texto

Desplazamiento

Transportador

Color de Fondo

Archivos

TONALIDAD, TAMAÑO, CIFRADO, SCROL.

Nos renovamos: Ahora puedes cambiar TODO haciendo clic en ICONO de la Guitarra () que aparece en la parte inferior de esta página.


LETRA CON ACORDES



Date: Sun, 3 May 1998 15:29:37 -0700 (MST)
From: Sean Kasun 
Subject: h/hoey_gary/*

>From the album Bug Alley
Tab by Sean Kasun (*)

This is actually a pretty layered song.  One layer sounds like the following
which he fades in at the beginning:

muted
|------------------------------------------------------------------------|
|------------------------------------------------------------------------|
|------------------------------------------------------------------------|
|-----------------8------------------------------------------------------|
|-6-9-6-9-6-9-6-9---9-6-9-6-9-...----------------------------------------|
|------------------------------------------------------------------------|


The main background arpeggio is this (which is repeated throughout):

|----2---------2--------2--------2---------------------------------------|
|-4----2---------2--2h4---2--------2--2h4-...----------------------------|
|----------3h4---------------3h4-----------------------------------------|
|------------------------------------------------------------------------|
|------------------------------------------------------------------------|
|------------------------------------------------------------------------|


Then the lead breaks out after a few seconds:

|------------|
|-9h11~------|
|------------|
|------------|
|------------|
|------------|

Coda
|------------------------------------------------|
|--11~--11-12-14------------11--12-11------------|
|o----------------11--11-13-----------1311-(11)-|
|o-----------------------------------------------|
|------------------------------------------------|
|------------------------------------------------|

|-------------------------------------------------------------------|
|-11~--11-12-14------------11--12-11--------------------------------|
|----------------11--11-13-----------1311-(11)-10h118~-----------o|
|---------------------------------------------------------118-----o|
|-------------------------------------------------------------------|
|-------------------------------------------------------------------|

|----------------------------11-14---------------------------------------|
|----------11-12-14--14---14-------14---14-14-12-11----11--11-12-14------|
|o---11-13------------------------------------------13--------------11--o|
|o-11-------------------------------------------------------------------o|
|------------------------------------------------------------------------|
|------------------------------------------------------------------------|

|-----------------------------------------------|
|----11-----------------------------------------|
|-13----13-11-108~-----------------------------|
|-------------------118~-----------------------|
|-----------------------------------------------|
|-----------------------------------------------|
go to coda, solo, repeat.

-sean

Video Clip de Coasting


ACORDES PARA GUITARRA

PIANO UKELELE


TOP 20: Las más tocadas de Gary Hoey


Toca una Canción al Azar de Gary Hoey

Acordes

Cerrar

21.57

x

179