Compartir


Cambiar Cifrado
Americano Latino

Cambiar Tonalidad
-1 +1
Imprimir FAQ
+A
-A

Texto

Desplazamiento

Transportador

Color de Fondo

Archivos

TONALIDAD, TAMAÑO, CIFRADO, SCROL.

Nos renovamos: Ahora puedes cambiar TODO haciendo clic en ICONO de la Guitarra () que aparece en la parte inferior de esta página.


LETRA CON ACORDES


 

From: Timothy (skywalker) B. Reynolds

Passion, Album
Remember Robin tunes down to D

           |      |
Intro:           twice
---------------------------------------|
--------5---------5---------8----7-----|
--------5---------6---------9----6-----|
---5--7-7-----5-7-7-----5-7-10---7-----|
-7------7---7-----7---7----------------|
---------------------------------------|
      5-7
the 7-    is used through out the song....


I tried to take the easy way| the easy life|
----------------------------------------------|
7-----------------------------5---------------|
7-----------------------------6---------------|
5-----------------------------7---------------|
7-----------------------------7---------------|
----------------------------------------------|

to bury myslef to sit on the shelf to bide my time
--------------------------------------------------|
8-----------------------------10------7-----------|
9-----------------------------11------6-----------|
10----------------------------12------7-----------|
--------------------------------------------------|
--------------------------------------------------|

now that the game is up |my covers blown
----------------------------------------------|
7-----------------------5---------------------|
7-----------------------6---------------------|
5-----------------------7---------------------|
7-----------------------7---------------------|
----------------------------------------------|

you count the cost and your wondering lost and the foul lights on
-----------------------------------------------------------------------|
8------------------------------------------------10------77------------|
9------------------------------------------------11------66------------|
10-----------------------------------------------12------77------------|
-----------------------------------------------------------------------|
-----------------------------------------------------------------------|

Theres no time for for you Theres no time for me Theres no time for us anymore
----------3------------------------------------5------------------------------|
----------3----------------10------------------5------------5--------5--------|
----------2----------------9-------------------4------------5--------6--------|
----------1----------------8---------2---------3------------5--------7--------|
----------2----------------9---------3---------4------------------------------|
------------------------------------------------------------------------------|

Video Clip de No Time


ACORDES PARA GUITARRA

PIANO UKELELE


TOP 20: Las más tocadas de Robin Trower


Acordes

Cerrar

17.47

x

142