as THE CARPET CRAWLERS | Genesis | Acordes

The Carpet Crawlers

Genesis

Acordes

Subida por saynomore


Más Versiones
Ver. 2 Ver. 3 Ver. 4 Ver. 5 Ver. 6

Cambiar Cifrado
Americano Latino

Cambiar Tonalidad
-1 +1

Partir Pantalla Imprimir FAQ

+A
-A


Ver solo la LETRA
    D                  Em
E|---3--3--3--3--3--3--------------| You should listen to the song
B|----2--2--2--2--2----------------| and try that against it. Played
G|---------------------0--0--0--0--| at a paced speed it should work!
D|--0--0--0--0--0--0----2--2--2--2-| Also use your fingers it helps!
A|--------------------2--2--2--2---|
E|---------------------------------|

(chorus is another story I can't see the finger picking working for a beginner
but try it on these chords. It works it just sounds strange if not worked on)

F#m
The carpet crawlers heed their callers
A G A
You got to get in to get ou - - -t
A G Bm
You got to get in to get ou - - -t
Bm C D
You got to get in to get ou - - -t

F#m A G Bm D
E|---------3--2--2--|
B|--2---2--3--3--3--|
G|--2---2--0--4--2--|
D|--4---2--0--4--0--|
A|--4---0--2--2-----|
E|--2------3--------|

(now here is the bit everyone loves about this song. The Steve Hackett bit when
it gets to, "You gotta get in to get out")

(remember I have figured this out through the live versions but can be put
in the studio one just as easily)

E|--15vvvv-15B-13-12-13-15vvvv-15b-13-15-12-10-12-12b-10-8-10/1210--|
B|-------------------------------------------------------------------|
G|-------------------------------------------------------------------|
D|-------------------------------------------------------------------|
A|-------------------------------------------------------------------|
E|-------------------------------------------------------------------|

NUEVO FORO DE MÚSICA

¿Tienes alguna duda, consulta, pregunta, consejo o algo para compartir sobre esta canción?

¡Puedes abrir un hilo en el FORO para que la comunidad te ayude! Hacer una pregunta

ACORDES PARA GUITARRA

PIANO UKELELE
D
Em
F#m
A
G
Bm
C


Las más tocadas de Genesis

D
Em
F#m
A
G
Bm
C