Entre comillas (Acordes)

Gerardo Peña

Subida por Mius

Compartir


Cambiar Cifrado
Americano Latino

Cambiar Tonalidad
-1 +1
Imprimir FAQ
+A
-A

Texto

Desplazamiento

Transportador

Color de Fondo

Archivos

TONALIDAD, TAMAÑO, CIFRADO, SCROL.

Nos renovamos: Ahora puedes cambiar TODO haciendo clic en ICONO de la Guitarra () que aparece en la parte inferior de esta página.


LETRA CON ACORDES

Intro

E------------------------------|
A------------------------------|
D----------------2-------------|   (BIS)
G----------------2------------2|
B--3-------------2--3-3-3-2-0-3|
E----0-2-2-2-3-2--------------2|
         *
E--------|-------3---|
A--------|-------2---|
D--------|----2--0-2-|
G--------|----2--0-0-|
B-3-3----|----2--0-2-|
E-----0-2|--0-0--3-0-|


A7             D    F#m            
Tuvieron importancia todos en su momento
Bm                           G              Em
programas, discos, cuentos para calmar mis ansias
Bm              Em           F#m
uno devora con fe lo que le ponen enfrente
          Bm                   G       Em      A7
con esas ganas ardientes de saber, sin saber que..
    D                  F#m
Y así, de pronto me volvi
G                   A7                    G          A7
susceptible a todo lo imposible me alimente de polvo

  D              A7     G         
Ahora me parece que los ojos ya no brillan, 
D     G               
que, que me ahogo en la orilla
D       G       
que se burlan los peces
D       Bm               Em  A7   G             A7
que desfilan estos meses de vida entre comillas
          D           A7  G         A      D
mas me hubiera valido no, tanto buscarte, no

(se repite intro hasta la marca, tonos igual a 1a est.)


Y llamarleal deseo por su nombre corriente
y ver lo que se siente no andarse con rodeos
fomentar la locura, que me valiera madre
que se me fuera la tarde fuera de, fuera de mi armadura
sin darme cuenta me volví
susceptible a todo lo imposible y nada me aleimentaaa

(Igual a 2a. est.)
De todo ese tumulto, sím saldrá algún candidato
sí, que se lleve barato,
sí, mi tono de hombre culto,
sí, mis enormes ojeras de adulto por un buen rato
mi ojeras de adulto, sí, entre comillas


Final

E--------------------------------------------------------|
A----------------0---------------------------------------|
D----------------2-------------------------------------0-|
G----------------2------------------2------------------2-|
B-3-0-2-2-2-3-2--2------3-------3-2---3-2-------3------3-|
E----------------0--3-2---3-2---------------3-2---3-2--2-|


Video Clip de Entre comillas


ACORDES PARA GUITARRA

PIANO UKELELE
A7
D
F#m
Bm
G
Em
A


TOP 20: Las más tocadas de Gerardo Peña


Acordes

Cerrar
A7
D
F#m
Bm
G
Em
A

13.17

x

103