Compartir


Imprimir FAQ
+A
-A

Texto

Desplazamiento

Transportador

Color de Fondo

Archivos

-A
+A
Da trilha sonora de "Como perder um cara em 10 dias"

Bom, apesar de ñ ter conseguido pegar o solo mto bem, espero que gostem
da minha transcrição.
Shang S.H.

Introdução:
Obs.: ~ slide
      G         Em        C
|---------------------------------------|     
|---3~5-3-0-1-3-5-3-0-1-3-----1-0-------|
|-------------------------0-------2-0---|  +
|---------------------------------------|
|---------------------------------------|
|---------------------------------------|

         G         Em        C                          
   |-------------------------------------------|   
   |---3~5-3-0-1-3-5-3-0-1-3-5-3-0-3-5-3-0-3---|   
2X |-------------------------------------------| + 
   |-------------------------------------------|   
   |-------------------------------------------|  
   |-------------------------------------------|   

      G         Em        C          D
|------------------------------------2---|
|---3~5-3-0-1-3-5-3-0-1-3------------3---|
|-------------------------0----5~3-3-2---|
|------------------------------------0---|
|----------------------------------------|
|----------------------------------------|
       

(D  Em  C)
Did you see the sky
I think it means that we've been lost
Maybe one less time is all we need
I can't really help it if my tongue's all tied in knots
Jumping off a bridge
It's just the farthest that I've ever been


REFRÃO:
G             Em
 Anywhere you go
      C
 I'll follow you down
D               Em             C
 Anyplace but those I know by heart
G             Em
 Anywhere you go
      C
 I'll follow you down
D                  Em              C
 I'll follow you down, but not that far


G  Em  C (com riff no fundo)
(D  Em  C)
I know we're headed somewhere
I can see how far we've come
Still I can't remember anything
Let's not do the wrong
And then I'll swear it might be fun
It's along way down
When all the knots we've tied
Have come undone

REFRÃO

SOLO: (ñ tenho certeza!) 2X(G  Em  C) + 2X(D  Em  C) + C
(se alguém descobrir exatamente qual a base do solo, avise-me ou corrija)

(D  Em  C)
How are you gonna ever find your place
Running in an artificial pace
Are they gonna find us
Lying face down in the sand
So what the hell
We've already been forever damned

2X REFRÃO

D                  Em              C
 I'll follow you down, but not that far (follow you down)
D                  Em              C
 I'll follow you down, but not that far (follow you down)
D                  Em              C
 I'll follow you down, but not that far (follow you down)

G  Em  C até o fim com riff da intro. no fundo...


Solo Principal por Gustavo Martins

e|--------------------------------------------|
B|-7b--7b-------------------------------------|
G|-7b--7b--9p7------------7-7---------7-7-----|  Faz isso 2X
D|--------------9-9-7---9-----9-7---9-----9-7-|
A|--------------------------------------------|
E|--------------------------------------------|

e|--------------------------------------------------|
B|--------------------------------------------------|
G|-14~~~---14b----------12-12-----------12-12-------|
D|-------------14-12-14-------14-12--14-------14-12-|
A|--------------------------------------------------|
E|--------------------------------------------------|

e|-------------------|
B|-------------------|
G|-14~~~---14b-------|
D|-------------14-12-|
A|-------------------|
E|-------------------|

e|------------------------------------------|
B|-10/12--12--10--8---10/12--12--10--8---10-|
G|------------------------------------------|
D|-07/09--09--07--5---07/09--09--07--5---07-|
A|------------------------------------------|
E|------------------------------------------|

HERRAMIENTAS ACORDESWEB:


LETRA DE LA CANCIÓN:

Ver la letra sola (sin acordes)

OTRAS VERSIONES DE LA MISMA CANCIÓN:

Ver. 2 Ver. 3 Ver. 4 Ver. 5 Ver. 6

DESCARGAR PDF / IMPRIMIR CANCIÓN



ACORDES PARA GUITARRA

PIANO UKELELE
G
Em
C
D


TOP 20: Las más tocadas de Gin Blossoms


Acordes

Cerrar
G
Em
C
D

21.16


184