Found Out About You
Gin Blossoms
Acordes

Subida por Sandaya
Álbum: New Miserable Experience ( 1992)


Más Versiones
Ver. 2 Ver. 3 Ver. 4 Ver. 5 Ver. 6

Cambiar Cifrado
Americano Latino

Cambiar Tonalidad
-1 +1

Partir Pantalla Imprimir FAQ

+A
-A
FOUND OUT ABOUT YOU
(From the 1992 Album NEW MISERABLE EXPERIENCE)

Transcribed by Wunderdog

Gtr I (E A D G B E) - right side
Gtr II (E A D G B E) - left side
Gtr III (E A D G B E) - solo

Notes:
The first guitar to appear is heard on the right.
The solo guitar (Gtr III) appears only at the bottom of
the trio of guitars shown at the solo section. Gtr I is silent
for the first eight bars. Some lyrics shown as a guide only.
Gtrs I & II vary every four bars or so. Fret #s shown in brackets
are not struck but held over from the last strike.

Duration Legend
---------------
+ - note tied to previous; . - note dotted; .. - note double dotted
Irregular groupings are notated above the duration line
Duration letters will always appear directly above the note/fret number it represents the
duration for. Duration letters with no fret number below them represent rests.

Tablature Legend
----------------
h - hammer-on
p - pull-off
s - legato slide

Misc Legend
-----------
| - bar
||o - repeat start
o|| - repeat end
& - Coda



Intro
Q=132
4/4
Gtr I
E E E E Q E E +E E E E E E E E
|--------------------|-----------------------------|
|--------------------|-----------------------------|
|-----4----2----0----|------0---0-----2---4---2--0-|
|-2-2---0-(0)--(0)-2-|-(2)-(2)-(2)-0-(0)-(0)-(0)---|
|--------------------|-----------------------------|
|--------------------|-----------------------------|
|
| Gtr II
| W W
|--------------------|-----------------------------|
|--------------------|-----------------------------|
|--------------------|-----------------------------|
|--------------------|-----------------------------|
|--------------------|-----------------------------|
|--------------------|-----------------------------|


E E E E Q E E +E E E E Q E E
|---------------------------------|-------------------------------|
|--------------------------3------|-------------------------------|
|-(0)------4-------2--------------|------4---4------2------2---0--|
|--2---2-------0--(0)----------2--|-(2)-(2)------0----------------|
|---------------------------------|-------------------------------|
|---------------------------------|-------------------------------|
|
| E E E E E E E E E E E E E E E E
|------0--(0)-(0)------0--(0)-(0)-|------0--(0)-(0)----0--(0)-(0)-|
|----------3---------------3------|----------3-------------3------|
|---------------------------------|-------------------------------|
|--------------0---0--(0)-(0)--0--|--2--(2)-(2)--0--0-(0)-(0)--0--|
|--3--(3)-(3)---------------------|-------------------------------|
|---------------------------------|-------------------------------|


Cadd9 Dsus2 Cadd9/E Dsus2
4/4
E E E E Q E E +E E E E E E E E
|-------------------------------|---------------------------------|
|-------------------------------|---------------------------------|
|--------4-------2-------0------|------0---0-------2---4---2---0--|
|-2--2-------0--(0)-----(0)--2--|-(2)-(2)-(2)--0--(0)-(0)-(0)-----|
|-------------------------------|---------------------------------|
|-------------------------------|---------------------------------|
|
| E E E E E E E E E E E E E E E E
|----0--(0)-(0)------0--(0)-(0)-|------0--(0)-(0)------0--(0)-(0)-|
|--------3---------------3------|----------3---------------3------|
|-------------------------------|---------------------------------|
|------------0---0--(0)-(0)--0--|--2--(2)-(2)--0---0--(0)-(0)--0--|
|-3-(3)-(3)---------------------|---------------------------------|
|-------------------------------|---------------------------------|


E E E E Q E E +E E E E Q E E
|---------------------------------|-------------------------------|
|--------------------------3------|-------------------------------|
|-(0)------4-------2--------------|------4---4------2------2---0--|
|--2---2-------0--(0)----------2--|-(2)-(2)------0----------------|
|---------------------------------|-------------------------------|
|---------------------------------|-------------------------------|
|
| E E E E E E E E E E E E E E E E
|------0--(0)-(0)------0--(0)-(0)-|------0--(0)-(0)----0--(0)-(0)-|
|----------3---------------3------|----------3-------------3------|
|---------------------------------|-------------------------------|
|--------------0---0--(0)-(0)--0--|--2--(2)-(2)--0--0-(0)-(0)--0--|
|--3--(3)-(3)---------------------|-------------------------------|
|---------------------------------|-------------------------------|


Verse one @ 0:14
$
$$
+W W
|-------------------------------|-----------------------------|
|-------------------------------|-----------------------------|
|-(0)---------------------------|-----------------------------|
|-------------------------------|-----------------------------|
|-------------------------------|-----------------------------|
|-------------------------------|-----------------------------|
|
| E E E E E E E E E E E E E E E E
|------0--(0)-(0)----0--(0)-(0)-|----0--(0)-(0)----0--(0)-(0)-|
|----------3-------------3------|--------3-------------3------|
|-------------------------------|-----------------------------|
|--------------0--0-(0)-(0)--0--|-2-(2)-(2)--0--0-(0)-(0)--0--|
|--3--(3)-(3)-------------------|-----------------------------|
|-------------------------------|-----------------------------|
All last summer...

E E E E E E E E +E E E E E E E E
|----0--(0)--------0--(0)-----|------0--(0)--------0--(0)-----|
|--------3-------------3------|----------3-------------3------|
|-0-(0)-(0)--0--2-(2)-(2)--0--|-(0)-(0)-(0)--0--2-(2)-(2)--0--|
|-----------------------------|-------------------------------|
|-----------------------------|-------------------------------|
|-----------------------------|-------------------------------|
|
| E E E E E E E E E E E E E E E E
|----0--(0)-(0)----0--(0)-(0)-|------0--(0)-(0)----0--(0)-(0)-|
|--------3-------------3------|----------3-------------3------|
|-----------------------------|-------------------------------|
|------------0--0-(0)-(0)--0--|--2--(2)-(2)--0--0-(0)-(0)--0--|
|-3-(3)-(3)-------------------|-------------------------------|
|-----------------------------|-------------------------------|


+W W
|-------------------------------|-----------------------------|
|-------------------------------|-----------------------------|
|-(0)---------------------------|-----------------------------|
|-------------------------------|-----------------------------|
|-------------------------------|-----------------------------|
|-------------------------------|-----------------------------|
|
| E E E E E E E E E E E E E E E E
|------0--(0)-(0)----0--(0)-(0)-|----0--(0)-(0)----0--(0)-(0)-|
|----------3-------------3------|--------3-------------3------|
|-------------------------------|-----------------------------|
|--------------0--0-(0)-(0)--0--|-2-(2)-(2)--0--0-(0)-(0)--0--|
|--3--(3)-(3)-------------------|-----------------------------|
|-------------------------------|-----------------------------|
I was yours...

E E E E E E E E +E E E E E E E E
|----0--(0)--------2--(2)-----|------3--(3)--------2--(2)-(2)-|
|--------3-------------3------|----------3-------------3------|
|-0-(0)-(0)--0--2-(2)-(2)--0--|-(0)-(0)-(0)--0--2-(2)-(2)--0--|
|-----------------------------|-------------------------------|
|-----------------------------|-------------------------------|
|-----------------------------|-------------------------------|
|
| E E E E E E E E E E E E E E E E
|----0--(0)-(0)----0--(0)-(0)-|------0--(0)-(0)----0--(0)-(0)-|
|--------3-------------3------|----------3-------------3------|
|-----------------------------|-------------------------------|
|------------0--0-(0)-(0)--0--|--2--(2)-(2)--0--0-(0)-(0)--0--|
|-3-(3)-(3)-------------------|-------------------------------|
|-----------------------------|-------------------------------|


+E E E E E E E E E E E E E E E E
|------3--(3)-(3)----3--(3)-(3)-|----3--(3)-(3)----3--(3)-(3)-|
|----------3-------------3------|--------3-------------3------|
|-(0)----------0--2-(2)-(2)--2--|-0----------0--2-(2)-(2)--2--|
|-------------------------------|-----------------------------|
|-------------------------------|-----------------------------|
|-------------------------------|-----------------------------|
|
| E E E E E E E E E E E E E E E E
|------0--(0)-(0)----0--(0)-(0)-|----0--(0)-(0)----0--(0)-(0)-|
|----------3-------------3------|--------3-------------3------|
|-------------------------------|-----------------------------|
|--------------0--0-(0)-(0)--0--|-2-(2)-(2)--0--0-(0)-(0)--0--|
|--3--(3)-(3)-------------------|-----------------------------|
|-------------------------------|-----------------------------|
Is there a line...

E E E E E E E E E E E E E E E E
|----3--(3)-(3)----3--(3)-(3)-|----3--(3)-(3)----3--(3)-(3)-|
|--------3-------------3------|--------3-------------3------|
|-0----------0--2-(2)-(2)--2--|-0----------0--2-(2)-(2)--2--|
|-----------------------------|-----------------------------|
|-----------------------------|-----------------------------|
|-----------------------------|-----------------------------|
|
| E E E E E E E E E E E E E E E E
|----0--(0)-(0)----0--(0)-(0)-|----0--(0)-(0)----0--(0)-(0)-|
|--------3-------------3------|--------3-------------3------|
|-----------------------------|-----------------------------|
|------------0--0-(0)-(0)--0--|-2-(2)-(2)--0--0-(0)-(0)--0--|
|-3-(3)-(3)-------------------|-----------------------------|
|-----------------------------|-----------------------------|
sad enough...

E E E E E E E E +E E E E E E E E
|----0--(0)--------0--(0)-----|------0--(0)--------0--(0)-----|
|--------3-------------3------|----------3-------------3------|
|-0-(0)-(0)--0--2-(2)-(2)--0--|-(0)-(0)-(0)--0--2-(2)-(2)--0--|
|-----------------------------|-------------------------------|
|-----------------------------|-------------------------------|
|-----------------------------|-------------------------------|
|
| E E E E E E E E E E E E E E E E
|----0--(0)-(0)----0--(0)-(0)-|------0--(0)-(0)----0--(0)-(0)-|
|--------3-------------3------|----------3-------------3------|
|-----------------------------|-------------------------------|
|------------0--0-(0)-(0)--0--|--2--(2)-(2)--0--0-(0)-(0)--0--|
|-3-(3)-(3)-------------------|-------------------------------|
|-----------------------------|-------------------------------|
all the lines...

To Coda D.S. al Coda
To Coda D.S. al Coda
E E E E Q E E +E E E E E E E E
|-------------------------------|---------------------------------|
|-------------------------------|---------------------------------|
|--------4-------2-------0------|------0---0-------2---4---2---0--|
|-2--2-------0--(0)-----(0)--2--|-(2)-(2)-(2)--0--(0)-(0)-(0)-----|
|-------------------------------|---------------------------------|
|-------------------------------|---------------------------------|
|
| E E E E E E E E E E E E E E E E
|----0--(0)-(0)------0--(0)-(0)-|------0--(0)-(0)------0--(0)-(0)-|
|--------3---------------3------|----------3---------------3------|
|-------------------------------|---------------------------------|
|------------0---0--(0)-(0)--0--|--2--(2)-(2)--0---0--(0)-(0)--0--|
|-3-(3)-(3)---------------------|---------------------------------|
|-------------------------------|---------------------------------|


&
&&
E E E E E E E E
|----------------------------------|
|----------------------------------|
|----0---0-------2---4---2---0-----|
|-2-(2)-(2)--0--(0)-(0)-(0)--------|
|----------------------------------|
|----------------------------------|
|
| E E E E E E E E
|----0--(0)-(0)------0--(0)-(0)----|
|--------3---------------3---------|
|----------------------------------|
|-2-(2)-(2)--0---0--(0)-(0)--0-----|
|----------------------------------|
|----------------------------------|


Chorus @ 1:11
H E E +E E H H
|-3-----3--(3)-(3)--3----|-3------2--------|
|-3----(3)-(3)-(3)-(3)---|-3------3--------|
|-5----(5)--5--(5)-(5)---|-0------2--------|
|-5----(5)-(5)-(5)-(5)---|-0------0--------|
|-3----(3)-(3)-(3)-(3)---|-----------------|
|------------------------|-----------------|
|
| H +Q. S S Q. E Q. S S
|------------------------|-----------------|
|-3----(3)----------3--3-|-3----3-3----3-3-|
|-0----(0)----------0--0-|-0----0-2----0-0-|
|-2----(2)----------0--0-|-0----0-0----0-0-|
|-3----(3)---------------|--------0--------|
|------------------------|-3---------------|
Whispers at the...

H E E +E E H H
|-3-----3--(3)-(3)--3----|-3------2------|
|-3----(3)-(3)-(3)-(3)---|-3------3------|
|-5----(5)--5--(5)-(5)---|-0------2------|
|-5----(5)-(5)-(5)-(5)---|-0------0------|
|-3----(3)-(3)-(3)-(3)---|---------------|
|------------------------|---------------|
|
| H +Q. S S Q. E Q Q
|------------------------|---------------|
|-3----(3)----------3--3-|-3----3-3--3---|
|-0----(0)----------0--0-|-0----0-2--2---|
|-2----(2)----------0--0-|-0----0-0--0---|
|-3----(3)---------------|---------------|
|------------------------|-3-------------|
nights out...

E E E E E E E E +E E E E E E E E
|----0--(0)----------0--(0)-----|------0--(0)----------0--(0)-----|
|--------3---------------3------|----------3---------------3------|
|-0-(0)-(0)--0---2--(2)-(2)--0--|-(0)-(0)-(0)--0---2--(2)-(2)--0--|
|-------------------------------|---------------------------------|
|-------------------------------|---------------------------------|
|-------------------------------|---------------------------------|
|
| E E E E E E E E E E E E E E E E
|-------------------------------|---------------------------------|
|--------3--(3)-(3)------3--(3)-|----------3--(3)-(3)------3--(3)-|
|----0--(0)-(0)------2--(2)-(2)-|------0--(0)-(0)------2--(2)-(2)-|
|-2-(2)-(2)--0---0--(0)-(0)--0--|--2--(2)-(2)--0---0--(0)-(0)--0--|
|-------------------------------|---------------------------------|
|-------------------------------|---------------------------------|
...you...

D.S.S. al Dbl. Coda
E E E E E E E E +E E E E E E E E
|----0--(0)----------0--(0)-----|------0--(0)----------0--(0)-----|
|--------3---------------3------|----------3---------------3------|
|-0-(0)-(0)--0---2--(2)-(2)--0--|-(0)-(0)-(0)--0---2--(2)-(2)--0--|
|-------------------------------|---------------------------------|
|-------------------------------|---------------------------------|
|-------------------------------|---------------------------------|
|
| E E E E E E E E E E E E E E E E
|-------------------------------|---------------------------------|
|--------3--(3)-(3)------3--(3)-|----------3--(3)-(3)------3--(3)-|
|----0--(0)-(0)------2--(2)-(2)-|------0--(0)-(0)------2--(2)-(2)-|
|-2-(2)-(2)--0---0--(0)-(0)--0--|--2--(2)-(2)--0---0--(0)-(0)--0--|
|-------------------------------|---------------------------------|
|-------------------------------|---------------------------------|
...you...

Solo @ 2:08
W W
|---------------------|--------------------------------|
|---------------------|--------------------------------|
|---------------------|--------------------------------|
|---------------------|--------------------------------|
|---------------------|--------------------------------|
|---------------------|--------------------------------|
|
| H E E E E E E E E E E E +E
|---------------------|--------------------------------|
|----------3--(3)-(3)-|------0--(0)-(0)-----3--(3)-(3)-|
|-0----^0-(0)-(0)--0--|----------0--------------0--(0)-|
|-2----^4-(4)--4--(4)-|--2--(2)-(2)--2--/4-(4)-(4)-----|
|-3----^5-(5)---------|--------------------------------|
|---------------------|--------------------------------|
|
| Gtr III
| H H +E Q E E E E E
|---------------------|--------------------------------|
|---------------------|--------------------------------|
|-0----^0-------------|-(0)----------------------------|
|-2----^4-------------|-(4)--7-------5---7-/9--7---5--|
|-3----^5-------------|-(5)----------------------------|
|---------------------|--------------------------------|


W W
|---------------------|--------------------------------|
|---------------------|--------------------------------|
|---------------------|--------------------------------|
|---------------------|--------------------------------|
|---------------------|--------------------------------|
|---------------------|--------------------------------|
|
| H E E E E E E E E E E E +E
|---------------------|--------------------------------|
|----------3--(3)-(3)-|------0--(0)-(0)-----3--(3)-(3)-|
|-0----^0-(0)-(0)--0--|----------0--------------0--(0)-|
|-2----^4-(4)--4--(4)-|--2--(2)-(2)--2--/4-(4)-(4)-----|
|-3----^5-(5)---------|--------------------------------|
|---------------------|--------------------------------|
|
| H H +E Q E E E Q
|---------------------|--------------------------------|
|---------------------|--------------------------------|
|------^0-------------|-(0)---------------------7------|
|------^4-------------|-(4)--7-------5---7-/9----------|
|-7----^5-------------|-(5)----------------------------|
|---------------------|--------------------------------|


W W
|------------------------|---------------------------------|
|------------------------|---------------------------------|
|------------------------|---------------------------------|
|------------------------|---------------------------------|
|------------------------|---------------------------------|
|------------------------|---------------------------------|
|
| H E E E E E E E E E E E +E
|------------------------|---------------------------------|
|-------------3--(3)-(3)-|--------0--(0)(0)-----3--(3)-(3)-|
|-0-------^0-(0)-(0)--0--|------------0-------------0--(0)-|
|-2-------^4-(4)--4--(4)-|---2---(2)-(2)-2--/4-(4)-(4)-----|
|-3-------^5-(5)---------|---------------------------------|
|------------------------|---------------------------------|
|
| E E E E E E E E +E E E E E E E E
|------------------------|---------------------------------|
|-----8------10--10--10--|-(10)--8---8--8---8--8---8---8--|
|-7-9---7-/9-(9)--9---9--|--(9)--7---7h=9---7--7---9---7--|
|------------------------|---------------------------------|
|------------------------|---------------------------------|
|------------------------|---------------------------------|


W W
|--------------------------|-------------------------------------|
|--------------------------|-------------------------------------|
|--------------------------|-------------------------------------|
|--------------------------|-------------------------------------|
|--------------------------|-------------------------------------|
|--------------------------|-------------------------------------|
|
| H E E E E E E E E E E E +E
|--------------------------|-------------------------------------|
|---------------3--(3)-(3)-|------0--(0)-----(0)------3--(3)-(3)-|
|-0---------^0-(0)-(0)--0--|----------0-------------------0--(0)-|
|-2---------^4-(4)--4--(4)-|--2--(2)-(2)------2--/4--(4)-(4)-----|
|-3---------^5-(5)---------|-------------------------------------|
|--------------------------|-------------------------------------|
|
| S E. E E E E E E +E E T S. E E E E E
|--------------------------|-------------------------------------|
|-8-(8)-8------------------|-------------------------------------|
|-7--9--7-0----------------|----------7--(7)--7--(7)-------------|
|------------7-/9--7---5--|-(5)--7---7---9---7------------------|
|--------------------------|---------------------10---9---7---5--|
|--------------------------|-------------------------------------|


Q. S. +T Q. S. +T Q. S. +T Q. E
|-----------------------------------------|-----------------------------------|
|-----------------------------------------|-----------------------------------|
|-----------------------------------------|-----------------------------------|
|-5-----------5--(5)s=7------------7--(7)s|==9----------9--(9)s=7-------------|
|-3-----------3--(3)s=5------------5--(5)s|==7----------7--(7)s=5-------------|
|-----------------------------------------|-----------------------------------|
|
| E E E E E E E E E E E E E E E E
|-----3--(3)-(3)----------3---(3)-(3)-----|------3--(3)(3)----------3-(3)-(3)-|
|---------3--(3)-----(3)-------3--(3)-----|-(3)------3-(3)-----(3)-----3--(3)-|
|-------------0------(0)-(0)--------------|-------------0------(0)-(0)--------|
|-2--(2)-(2)----------0--(0)--(0)--0------|--2--(2)-(2)---------0--(0)(0)--0--|
|-----------------------------------------|-----------------------------------|
|-----------------------------------------|-----------------------------------|
|
| Q E E E S S E E +E E E E E E E E
|-----------------------------------------|-----------------------------------|
|-----------------------------------------|------8---8-(8)------8---8-(8)-----|
|----------------------------------7------|-(7)--7---7h=9-------7---7h=9---0--|
|-------------------------5h7h=9----------|-----------------------------------|
|-7-------7---5------/7-------------------|-----------------------------------|
|-----------------------------------------|-----------------------------------|


Q. S. +T Q. S. +T Q. S. +T Q. E
|-----------------------------------------|--------------------------------------|
|-----------------------------------------|--------------------------------------|
|-----------------------------------------|----------------------------------0---|
|-5-----------5--(5)s=7------------7--(7)s|==9-----------9--(9)s=7---------------|
|-3-----------3--(3)s=5------------5--(5)s|==7-----------7--(7)s=5---------------|
|-----------------------------------------|--------------------------------------|
|
| E E E E E E E E E E E E E E E E
|-----3--(3)-(3)----------3---(3)-(3)-----|------3--(3)-(3)----------3--(3)-(3)--|
|---------3--(3)-----(3)-------3--(3)-----|-(3)------3--(3)-----(3)------3--(3)--|
|-------------0------(0)-(0)--------------|--------------0------(0)-(0)----------|
|-2--(2)-(2)----------0--(0)--(0)--0------|--2--(2)-(2)----------0--(0)-(0)--0---|
|-----------------------------------------|--------------------------------------|
|-----------------------------------------|--------------------------------------|
|
| Q E E E S S E E +E E E E E E E E
|-----------------------------------------|----------------------0---0---0---0---|
|-----------------------------------------|-(3)--8--(8)-(8)------8--(8)-(8)------|
|----------------------------------7------|------7---7---9-------9--(9)-(9)------|
|-------------------------5h7h=9----------|--------------------------------------|
|-7-------7---5------/7-------------------|--------------------------------------|
|-----------------------------------------|--------------------------------------|


E E E E E E E E +E E E E E E E E
|-------------------------------|------------------------------------|
|-3------3-------3-------3---3--|-(3)---5---5--3---3/---5----3---3--|
|-0------0-------2-------0---0--|-(0)--------------------------------|
|-------------------------------|------------------------------------|
|-------------------------------|------------------------------------|
|-------------------------------|------------------------------------|
|
| E E E E E E E E E E E E E E E E
|----3--(3)-(3)------3--(3)-(3)-|-------3--(3)-(3)-------3---(3)-(3)-|
|--------3--(3)-(3)------3--(3)-|-(3)-------3--(3)-(3)--------3--(3)-|
|------------0--(0)-(0)---------|---------------0--(0)--(0)----------|
|-2-(2)-(2)------0--(0)-(0)--0--|--2---(2)-(2)------0---(0)--(0)--0--|
|-------------------------------|------------------------------------|
|-------------------------------|------------------------------------|
|
| Q Q Q E E +E E E E E E E E
|-------------------------------|------------------------------------|
|-8------7-------5-------3--/5--|-(5)-/10--10---8--10--/12--10---8--|
|-------------------------------|------------------------------------|
|-------------------------------|------------------------------------|
|-------------------------------|------------------------------------|
|-------------------------------|------------------------------------|


+Q E E E E E E +E E Q E E E E
|-----------------------0---(0)-----|------0----------------------------|
|-(3)------3-------5---(5)---3---0--|-(0)------3-------3---/5---3---3--|
|-----------------------------------|-----------------------------------|
|-----------------------------------|-----------------------------------|
|-----------------------------------|-----------------------------------|
|-----------------------------------|-----------------------------------|
|
| E E E E E E E E E E E E E E E E
|------3--(3)-(3)-------3---(3)-(3)-|------3--(3)-(3)-------3---(3)-(3)-|
|----------3--(3)-(3)--------3--(3)-|-(3)------3--(3)-(3)--------3--(3)-|
|--------------0--(0)--(0)----------|--------------0--(0)--(0)----------|
|--2--(2)-(2)------0---(0)--(0)--0--|--2--(2)-(2)------0---(0)--(0)--0--|
|-----------------------------------|-----------------------------------|
|-----------------------------------|-----------------------------------|
|
| Q E E E E E E +Q E E E E E E
|-----------------------------------|-----------------------------------|
|--8------10---8--10--/12--10---8--|-(8)-----10---8--10--/12--10---8--|
|-----------------------------------|-----------------------------------|
|-----------------------------------|-----------------------------------|
|-----------------------------------|-----------------------------------|
|-----------------------------------|-----------------------------------|


Outro @ 3:34 with ritard
E E E E E E E E +E E E E E E E E
|----0--(0)----------0--(0)-----|------0--(0)----------0--(0)-----|
|--------3---------------3------|----------3---------------3------|
|-0-(0)-(0)--0---2--(2)-(2)--0--|-(0)-(0)-(0)--0---2--(2)-(2)--0--|
|-------------------------------|---------------------------------|
|-------------------------------|---------------------------------|
|-------------------------------|---------------------------------|
|
| E E E E E E E E E E E E E E E E
|-------------------------------|---------------------------------|
|--------3--(3)-(3)------3--(3)-|----------3--(3)-(3)------3--(3)-|
|----0--(0)-(0)------2--(2)-(2)-|------0--(0)-(0)------2--(2)-(2)-|
|-2-(2)-(2)--0---0--(0)-(0)--0--|--2--(2)-(2)--0---0--(0)-(0)--0--|
|-------------------------------|---------------------------------|
|-------------------------------|---------------------------------|


Q=116 Q=100 Q=70 Q=48
E E E E E E E E +E E E E E E E E
|----0--(0)----------0--(0)-----|------0--(0)----------0--(0)-----|
|--------3---------------3------|----------3---------------3------|
|-0-(0)-(0)--0---2--(2)-(2)--0--|-(0)-(0)-(0)--0---2--(2)-(2)--0--|
|-------------------------------|---------------------------------|
|-------------------------------|---------------------------------|
|-------------------------------|---------------------------------|
|
| E E E E E E E E E E E E E E E E
|-------------------------------|---------------------------------|
|--------3--(3)-(3)------3--(3)-|----------3--(3)-(3)------3--(3)-|
|----0--(0)-(0)------2--(2)-(2)-|------0--(0)-(0)------2--(2)-(2)-|
|-2-(2)-(2)--0---0--(0)-(0)--0--|--2--(2)-(2)--0---0--(0)-(0)--0--|
|-------------------------------|---------------------------------|
|-------------------------------|---------------------------------|


W
|-------|
|-^1----|
|-^0----|
|-^2----|
|-------|
|-------|
|
| W
|-^0----|
|-^3----|
|-^0----|
|-^2----|
|-------|
|-------|

ACORDES PARA GUITARRA

PIANO UKELELE


COMENTARIOS

Aún no hay comentarios,

¡escribe el primero!

Escribe una pregunta, duda o comentario sobre esta canción, te responderemos a la brevedad.

Las más tocadas de Gin Blossoms

Toca una Canción al Azar de Gin Blossoms