Not Only Numb
Gin Blossoms
Acordes

Subida por Maxwell
Álbum: Congratulations I’m Sorry ( 1996)


Más Versiones
Ver. 2 Ver. 3 Ver. 4 Ver. 5 Ver. 6

Cambiar Cifrado
Americano Latino

Cambiar Tonalidad
-1 +1

Partir Pantalla Imprimir FAQ

+A
-A
Looking all around the room I see the clutter in the gloom
Changing shades within the evening in a day then I'll be leaving
I'm now familiar with the tone I hear in bed when I'm alone
In the shade below the eaves think I could chain smoke anything
G5 Cadd9 G5 Dsus2
|---3---3-|---3-----|---3-----|---0-----|
|-----3---|-----3---|-----3---|-----3---|
|---------|-------0-|-------0-|-------2-|Guitar 1
|---------|---------|---------|-0-------|
|---------|-3-------|---------|---------|
|-3-------|---------|-3-------|---------|

I'm not only back,I'm not only numb
Em7 Cadd9 G5 D5
|---0-----|---0-----|---3---3-|---------|
|-----3---|-----3---|-----3---|-3-------|
|-------0-|-------0-|---------|-2-------|Guitar 1
|-2-------|---------|---------|---------|
|---------|-3-------|---------|---------|
|---------|---------|-3-------|---------|


When the air at home is thin getting out then looking in
It ain't awful hard to tell what it's like,my little hell
Cadd9 Dsus2 Em7 Cadd9
|---0-----|---0-----|---0-----|---0-----|
|-----3---|-----3---|-----3---|-----3---|
|-------0-|-------2-|-------0-|-------0-|Guitar 1
|---------|-0-------|-2-------|---------|
|-3-------|---------|---------|-3-------|
|---------|---------|---------|---------|

|---------|---------|---------|---------|
|-----3---|-----3---|-----3---|-----3---|
|-------0-|---2---2-|---0---0-|-------0-|Guitar 2
|---2-----|-0-------|-2-------|---2-----|
|-3-------|---------|---------|-3-------|

Yeah she knows,she knows,she knows
Dsus2 Cadd9 1 Dsus2
|---0-----|---0-----|---0-----|---------|
|-----3---|-----3---|-----3-3-|---------|
|-------2-|-------0-|-------2-|---------|Guitar 1
|-0-------|---------|-0-------|---------|
|---------|-3-------|---------|---------|
|---------|---------|---------|---------|
1,3
|---------|---------|---------|---------|
|-----3---|-----3---|-----3-3-|---------|
|---2---2-|-------0-|---2---2-|---------|Guitar 2
|-0-------|---2-----|-0-------|---------|
|---------|-3-------|---------|---------|
|---------|---------|---------|---------|
2 D
|---0-----|-2-------|
|-----3-3-|-3-------|
|-------2-|-2-------|Guitar 1
|-0-------|-0-------|
|---------|---------|
|---------|---------|
2
|-------0-|-2h3-2---|
|-----3-3-|-3-3-3---|
|---2-----|---------|Guitar 2
|-0-------|---------|
|---------|---------|
|---------|---------|
3
|---0-----|---0---3-|
|-----3---|-----3---|
|-------2-|---------|Guitar 1
|-0-------|-0-------|
|---------|---------|
|---------|---------|


She knows,she knows,she knows
G Dsus2 G
|---3-----|---0-----|---3---3-|
|-----3---|-----3---|-----3---|
|-------0-|-------2-|---------|Guitar 1
|---------|-0-------|---------|
|---------|---------|---------|
|-3-------|---------|-3-------|
D
|-3-------|-2-------|-3-------|
|-3-------|-3-------|-3-------|
|-0-------|-2-------|-0-------|Guitar 2
|-0-------|-0-------|-0-------|
|-2-------|---------|-2-------|
|-3-------|---------|-3-------|

She sees all the cars around the parking lots of bars we've played and stayed
G F# Em7 Cadd9 D G
|-3-2-----|-0-------|-0-------|---2---3-2-----|---3---|
|-3-3-----|-3-------|-3-------|-----3-----3---|---3---|
|---------|-0-------|-0-------|-------------0-|---0---|
|---------|-2-------|-2-------|-0-------------|-0-----|
|---------|-2-------|-3-------|---------------|-2-----|
|---------|-0-------|---------|---------------|-3-----|

Started laughing,looking down upon the bed that we've made,we've made
|---2---3-2-----|
|-----3-----3---|
|-------------2-| x 3
|-0-------------|
|---------------|
|---------------|

Guitar solo

|-12-12-12-|-10-10-10-|--8--8--8-|-7-7-7-|-5-5-5-|-3-3-3-|-2-2-2-|-0-0-0-|
|-13-13-13-|-12-12-12-|-10-10-10-|-8-8-8-|-7-7-7-|-5-5-5-|-3-3-3-|-1-1-1-|
|--0--0--0-|--0--0--0-|--0--0--0-|-0-0-0-|-0-0-0-|-0-0-0-|-0-0-0-|-0-0-0-|
|----------|----------|----------|-------|-------|-------|-------|-------|
|----------|----------|----------|-------|-------|-------|-------|-------|
|----------|----------|----------|-------|-------|-------|-------|-------|
1 2 3
|---------|---------|---------|---------|
|-0-1/3---|-3-3-3-3-|-3-----3-|-1p0---3-|
|-0-----0-|-0-2-4-2-|-0-2/4---|-----0-2-|
|---------|---------|---------|---------|
|---------|---------|---------|---------|
|---------|---------|---------|---------|



Hey enjoy! just giving you guys back a bit of what i'm taking from the net!

***Noypi Astig!***
*

ACORDES PARA GUITARRA

PIANO UKELELE


COMENTARIOS

Aún no hay comentarios,

¡escribe el primero!

Escribe una pregunta, duda o comentario sobre esta canción, te responderemos a la brevedad.

Las más tocadas de Gin Blossoms

Toca una Canción al Azar de Gin Blossoms