Banshee Song (Acordes)

Gob

Subida por Jonathan23

Compartir


Imprimir FAQ
+A
-A

Texto

Desplazamiento

Transportador

Color de Fondo

Archivos

-A
+A
Gob

Banshee Song
Muertos Vivos
2007
Submitted by: [email protected]

Key: Eb

Tuning: Standard EADGBe

Chords used:
Eb -   x68886
Bb/D - x587xx
Cm -   x35543
G -    320033
G# -   466544
G/B -  x2x033
Fm -   133111
Bb -   x13331
C# -   x46664


Intro: 

Tom:           Eb
e|-------------------------------|
B|-4-4-4-4-4-4-4-4-tremolo speed-|
G|-------------------------------|
D|-------------------------------| x4
A|-------------------------------|
E|-------------------------------|

Theo:
e|-18----18----18----18----|
B|----16----16----16----16-|
G|-------------------------|
D|-------------------------|
A|-------------------------|
E|-------------------------|


Verse 1:
Eb               Bb/D
  I turn out the light
Cm                G/B
  And lay here in wait 
                 G#
with half-closed eyes
                Fm
You would scare most 
with your presence
G#             Fm
  It's your complexion if 
that's what it's called
Eb           Bb/D
  Opaque and white
Cm                 G
  You float in the doorway
             G#
float in the night
               Fm
Your hands are ice
I would bet on it
G#                 Fm
  The room gets so cold 
after you come around


Theo: Verses
             Eb                        Bb/D
e|-------------------------|-------------------------|
B|-------------------------|-------------------------|
G|-12-12-12-12-12-12-12-12-|-10-10-10-10-10-10-10-10-|
D|--x--x--x--x--x--x--x--x-|--x--x--x--x--x--x--x--x-|
A|-10-10-10-10-10-10-10-10-|--8--8--8--8--8--8--8--8-|
E|-------------------------|-------------------------|

         Cm                    G/B
e|-----------------|-------------------------|
B|-----------------|-------------------------|
G|-8-8-8-8-8-8-8-8-|-10-10-10-10-10-10-10-10-|
D|-x-x-x-x-x-x-x-x-|--x--x--x--x--x--x--x--x-|
A|-6-6-6-6-6-6-6-6-|--8--8--8--8--8--8--8--8-|
E|-----------------|-------------------------|

         G#                    Fm
e|-----------------|-------------------------|
B|-----------------|-------------------------|
G|-8-8-8-8-8-8-8-8-|-10-10-10-10-10-10-10-10-|
D|-x-x-x-x-x-x-x-x-|--x--x--x--x--x--x--x--x-|
A|-6-6-6-6-6-6-6-6-|--8--8--8--8--8--8--8--8-|
E|-----------------|-------------------------|

             G#                        Fm
e|-------------------------|-------------------------|
B|-------------------------|-------------------------|
G|-12-12-12-12-12-12-12-12-|-13-13-13-13-13-13-13-13-|
D|--x--x--x--x--x--x--x--x-|--x--x--x--x--x--x--x--x-|
A|-10-10-10-10-10-10-10-10-|-11-11-11-11-11-11-11-11-|
E|-------------------------|-------------------------|


Refrain:
G#
  I am ever waiting
you are out there wailing


Chorus 1:
Eb                            Bb
Love please come and haunt me always
     Cm                       G G# G Fm G# G Bb
I'll let you come and take me on
Eb                             Bb
Love come taunt me through the whole night
  Cm                         G  G# G Fm G# G Bb
I need to, need to feel your soul


Verse 2:
Eb                Bb/D
  Can I see you tonight?
Cm                  G/B
  You leave with a start 
               G#
when I open my eyes
           Fm
You get so shy if 
I look at you
G#                 Fm
  Why come back to me if you 
won't let me see you
Eb             Bb/D
  Don't make a sound
Cm              G
  If I close my eyes 
                 G#
when you're not around
           Fm
I hear the same haunting melody
G#             Fm
  I know it by heart you're banshee song


(Repeat Refrain and Chorus 1)


Bridge:
G# G Eb   G#        Bb
        I left your living room
G# G Eb   G#       Bb
        I left you live alone
G# G Eb   G#                Eb--
        I left you live and roam


Interlude: Eb--Bb--Cm--Bb--
G#--


(Repeat Refrain and Chorus 1)


Guitar Solo: 

Tom: Eb--Bb--Cm--G--G#--B-Bb-

Theo: Solo
            Eb                       Bb                       Cm
e|------------------------|------------------------|------------------------|
B|------------------4p3h4-|------------------3p1h3-|------------------1---1-|
G|--------0--0h1h3--------|------------------------|---------------0----3---|
D|-1--1h3-----------------|--------0--0h1h3--------|------0-1--1h3----------|
A|------------------------|-1--1h3-----------------|-3--3-------------------|
E|------------------------|------------------------|------------------------|

               G                        G#
e|---------------------------|------------------------|
B|---------------------------|-1--1-------------------|
G|------------------3p1h3--1-|-------3--1--0--0--1--3-|
D|---------------0-----------|------------------------|
A|--------1--1h3-------------|------------------------|
E|-3--3h4--------------------|------------------------|

          B                 Bb
e|-----------------|-----------------|
B|-4p2-------------|-3p1-------------|
G|-----4p3---------|-----3p2---------|
D|---------4p3-----|---------3p2-----|
A|-------------4p2-|-------------3p1-|
E|-----------------|-----------------|


Chorus 2:
Eb                            Bb
Love please come and haunt me always
     Cm                       G# B--Bb--Eb(hold)
I'll let you come and take me on


Theo: Chorus 2
            Eb                         Bb                          Cm, !=artifical harmonics
e|------------------------|---------------------------|-------------------------|
B|------------------4p3h4-|------------------3p1h3--4-|------------------1---1!-|
G|--------0--0h1h3--------|---------------------------|---------------0----3----|
D|-1--1h3-----------------|--------0--0h1h3-----------|------0-1--1h3-----------|
A|------------------------|-1--1h3--------------------|-3--3--------------------|
E|------------------------|---------------------------|-------------------------|

               G                      G#             B          Bb     Eb
e|---------------------------|---------3-3-3-3-|-----------|---------|----|
B|---------------------------|-----------------|-4-4-4-4h6-|-3-3-3-3-|-4--|
G|------------------3p1h3--1-|-5-5-5-5---------|-----------|---------|----|
D|---------------0-----------|-----------------|-----------|---------|----|
A|--------1--1h3-------------|-----------------|-----------|---------|----|
E|-3--3h4--------------------|-----------------|-----------|---------|----|

HERRAMIENTAS ACORDESWEB:


LETRA DE LA CANCIÓN:

Ver la letra sola (sin acordes)

DESCARGAR PDF / IMPRIMIR CANCIÓN



ACORDES PARA GUITARRA

PIANO UKELELE
Eb
Bb/D
Cm
G
G#
G/B
Fm
Bb
C#
B


TOP 20: Las más tocadas de Gob


Toca una Canción al Azar de Gob

Acordes

Cerrar
Eb
Bb/D
Cm
G
G#
G/B
Fm
Bb
C#
B

23.05


445