What To Do (Acordes)

Gob

Subida por Marcelot

Compartir


Imprimir FAQ
+A
-A

Texto

Desplazamiento

Transportador

Color de Fondo

Archivos

-A
+A
Gob

What To Do
How Far Shallow Takes You
1998
Submitted by: [email protected]

Key: Bb

Tuning: Standard EADGBe

Chords used:
Bb -   x13331
F -    133211
Gm -   355333
Eb -   x68886
Cm -   x35543
Bb/D - x587xx


Intro: Bb--Gm--Eb--F--

Guitar 2:
                    Bb             Gm             Eb             F
e|-----------|--------------|--------------|--------------|--------------|
B|---4-3-1-3-|------4-3-1-3-|------4-3-1-3-|-4----4-3-1-3-|-1----4-3-1---|
G|-3---------|-3--3---------|-0--0---------|----3---------|----3-------3-|
D|-----------|--------------|--------------|--------------|--------------|
A|-----------|--------------|--------------|--------------|--------------|
E|-----------|--------------|--------------|--------------|--------------|


Verse 1:
Bb
  something's on my mind
F               Eb
  something is straight sometimes
Bb                                 F    Eb
  i'm find sit around out here and think


Chorus 1:
Bb          F           Eb
do you even know what's going on?
      Bb                  F         Eb       
cause I sure don't have a clue with you anymore


Interlude: Bb--Gm--Eb--F--

Guitar 2:
                    Bb             Gm             Eb             F
e|-----------|--------------|--------------|--------------|--------------|
B|---4-3-1-3-|------4-3-1-3-|------4-3-1-3-|-4----4-3-1-3-|-1----4-3-1---|
G|-3---------|-3--3---------|-0--0---------|----3---------|----3-------3-|
D|-----------|--------------|--------------|--------------|--------------|
A|-----------|--------------|--------------|--------------|--------------|
E|-----------|--------------|--------------|--------------|--------------|


Verse 2:
Bb
  Got a wound inside
F       Eb
  But i know i'm fine
Bb                        F    Eb
  Sit around out here and think


Chorus 2:
Bb          F           Eb
Do you even know what's going on?
        Bb                  F
Cause i can't stand to hang out
   Eb           Cm   Bb/D Eb  Bb F
Or even be with you any---more
     Cm   Bb/D Eb  Bb F--
with you any---more


Breakdown: Guitar Solo
Bb-Gm-F-Eb- x4

Guitar 2: Pluck thee strings fast!!!
         Bb                Gm                 F                 Eb
e|-----------------|-----------------|-----------------|-----------------|
B|-----------------|-----------------|-----------------|-----------------|
G|-----------------|-----------------|-----------------|-----------------|
D|-----1-1-0-0-----|-----1-1-0-0-----|-----1-1-0-0-----|-1-1-1-1-0-0-1-1-| x4
A|-1-1---------1-1-|-----------------|-----------------|-----------------|
E|-----------------|-3-3---------3-3-|-1-1---------1-1-|-----------------|


Chorus 3:
     Cm   Bb/D Eb  Bb F--
with you any---more
     Cm   Bb/D Eb  Bb F--
with you any---more
     Cm   Bb/D Eb  Bb F--
with you any---more
     Cm   Bb/D Eb  Bb F--
with you any---more
     Cm   Bb/D Eb  Bb F--
with you any---more
     Cm   Bb/D Eb  Bb F--
with you any---more


Outro: Cm--Bb/D-Eb--Bb-F x2

HERRAMIENTAS ACORDESWEB:


LETRA DE LA CANCIÓN:

Ver la letra sola (sin acordes)

DESCARGAR PDF / IMPRIMIR CANCIÓN



ACORDES PARA GUITARRA

PIANO UKELELE
Bb
F
Gm
Eb
Cm
Bb/D
D


TOP 20: Las más tocadas de Gob


Toca una Canción al Azar de Gob

Acordes

Cerrar
Bb
F
Gm
Eb
Cm
Bb/D
D

21.58


398