Anjo
Hewie
Acordes

Subida por Frankurbina
Álbum: Hewie ( 2015)
Mudar para Português
   Intro 2x: Am7   C  Em    D6
E|------------------------------------------------------------------------------------------------
B|--------------1---------------------0--------------------3p0--------------------0---------------
G|-------0-----------0--------0---0h2---2h0---------0-------4p2-------2-----------2----------------
D|----2-----2-----2---2----0---0-------------------0-------------------4----4-----4---4----------
A|-0-----------------------3--------------------------------------------5---------------------0--
E|--------------------------------------------------0---------------------------------------------

Pré-refrão:
E|------------------------------------------------------------------------------------------------
B|--------------1---------------------0--------------------3p0--------------------0---------------
G|-------0-----------0--------0---0h2---2h0---------0-------4p2-------2-----------2---------------
D|----2-----2-----2---2----0---0-------------------0-------------------4----4-----4---4-----------
A|-0-----------------------3--------------------------------------------5---------------------5---
E|--------------------------------------------------0---------------------------------------------



Refrão:

E|------------------------------------------------------------------------------------------------------
B|--1-----------1---3---1---0---------------0----------------------0---------------------1--------------
G|--0-----0----0---0---0---0----0-----0h2---2p0---2----2-------2/4----------0---------0----------------
D|------0----0------------------0----0---------------------0-----0---------------2----2----2---2--------
A|--3----------------------------------------------------------------------------2----------------------
E|----------------------------3---------------------------2---------------------------------------------


Variação 2ª parte do refrão:

E|------------------------------------------------------------------------------------------------------
B|--1-----------1---3---1---0---------------0----------------------0------------------------------------
G|--0-----0----0---0---0---0----0-----0h2---2p0---2----2-------------2----------------------------------
D|------0----0------------------0----0---------------------0-----0-----0-------0------------------------
A|--3---------------------------------------------------------------------------------------------------
E|----------------------------3---------------------------2-----------------------------2---------------



Am7 C Em D6
Meu bem eu sei
Am7 C Em D6
Que o medo está aqui
Am7 C Em D6
E sei que eu
Am7 C Em D6
Fiz você chorar

Am7 C Em D6
Mas agora posso ver, a neblina se foi
Am7 C Em D6
Por favor estenda a mão, e me deixa segurar

C G
Sobre nós...
D/F# Em
Nos deixe voar
C G D/F# Am7
Você sempre será meu anjo eterno.

(Intro)

Am7 C Em D6
Um vão ao chão
Am7 C Em D6
Que te fez cair
Am7 C Em D6
Quero pular
Am7 C Em D6
Se me prometer ficar

Am7 C Em D6
Mesmo quando estiver longe eu vou lembrar
Am7 C Em D6
Por favor só mais uma vez, me deixa entrar.

C G
Sobre nós...
D/F# Em
Nos deixe voar
C G D/F#
Você sempre será meu anjo.
C G
Sobre nós...
D/F# Em
Nos deixe dançar
C G D/F# Am7
Você sempre será meu anjo eterno.

( Am7 C Em D6 ) (2x)



Otras Versiones
Ver. 2

Cambiar Cifrado
Americano Latino

Cambiar Tonalidad
-1 +1

Partir Pantalla Imprimir FAQ

+A
-A

ACORDES PARA GUITARRA

PIANO UKELELE
Am7
C
Em
D6
G
D/F#



COMENTARIOS

Aún no hay comentarios,

¡escribe el primero!

Escribe un comentario o pregunta sobre esta canción


TOP 20: Las más tocadas de Hewie

Ver más

Toca una Canción al Azar de Hewie
Am7
C
Em
D6
G
D/F#

Nuestro servidor se demoró 0.03 segundos en generar esta página. Eso fue realmente muy rápido!