Poder Voltar
Hewie
Acordes

Subida por ronald777
Álbum: Hewie ( 2015)



Cambiar Cifrado
Americano Latino

Cambiar Tonalidad
-1 +1

Partir Pantalla Imprimir FAQ

+A
-A
Mudar para Português
Intro: A

E|----------------------------------------------------|
B|-----------2-------2-------2-------2----------------|
G|---------------2-------2-------2-------2------------|
D|----------------------------------------------------|
A|-0---0---0---0---0---0---0---0---0---0--------------|
E|----------------------------------------------------|

Verso: A D A

A D A

E|----------------------------------------------------|
B|-----2-------3-------2-------2----------------------|
G|---------2-------2-------2-------2------------------|
D|----------------------------------------------------|
A|---0---0---0---0---0---0---0---0--------------------|
E|----------------------------------------------------|

A D
Mais um outono já chegou
A D
Abro a janela pro vento entrar
F#m D A
O medo está de mãos dadas com o frio...

A D A
Faz tanto tempo que já se foi
A D A
Lá fora está frio, querendo dizer
F#m D A
Que já é hora de voltar...

F#m A E F#m A E
E eu só posso querer gritar, que eu preciso te esperar
F#m A E E A
Já cuidei de arrumar tudo aqui, pra você poder voltar.

A D A
Eu sei que tudo vai melhorar
A D A
O tempo ajuda à nos curar
F#m D A
É o que eu quero acreditar...

F#m D A E
Como eu pude te deixar ir?
F#m D A E
Eu não soube cuidar de ti.
F#m D A E
Mas vou pedir pro amor vencer
F#m D A E
E te fazer querer voltar

F#m A E F#m A E
E eu só posso querer gritar, que eu preciso te esperar
F#m A E E A
Já cuidei de arrumar tudo aqui, pra você poder voltar.
F#m A E E A
Já cuidei de arrumar tudo aqui, pra você poder voltar.

ACORDES PARA GUITARRA

PIANO UKELELE
A
D
F#m
E


COMENTARIOS

Aún no hay comentarios,

¡escribe el primero!

Escribe una pregunta, duda o comentario sobre esta canción, te responderemos a la brevedad.

Las más tocadas de Hewie

Toca una Canción al Azar de Hewie
A
D
F#m
E