Compartir


Imprimir FAQ
+A
-A

Texto

Desplazamiento

Transportador

Color de Fondo

Archivos

-A
+A
Intro
Guitar 1
E|---x-----x---x---x|
B|---x-----x---x---x|
G|---x-----x---x---x|
D|1--x--5--x-6-x-3-x|
A|1--x--5--x-6-x-3-x|
D|1--x--5--x-6-x-3-x|   1x

Guitar 2|   3x|1x
E|-------------------------------|---------------------------------|
B|--------------------------8-8-|--------------8-8-8---------------|
G|-8-8-8-------10-10-10---------|--8-8-8-----------------10-10-----|
D|--------8-8-8-----------------|---------8-8-8--------------------|
A|-------------------------------|---------------------------------|
D|-------------------------------|---------------------------------|

Verso
Guitar1
E|------------------------------------------|
B|------------------------------------------|
G|------------------------------------------|
D|1----------3/6-----------58--------------|
A|1-(x32)----3/6-(x16)-----58-(x16)--------|
D|1----------3/6-----------58--------------| 2x
  
PreChorus
E|------------------------------------|
B|------------------------------------|
G|------------------------------------|
D|3-------x-------5-x-------6-------8-|
A|3-(x4)--x-(4x)--5-x-(4x)--6-(8x)--8-|
D|3-------x-------5-x-------6-------8-|
|(muted)->

Chorus
E|--------|
B|--------|
G|--------|
D|1-6-3-6-|
A|1-6-3-6-|
D|1-6-3-6-|  2x

Verso 2x

PreChorus

Chorus 2x


Solo (Guitar 1)
E|--------|------|
B|--------|------|
G|--------|------|
D|1-6-3-6-|-1~~--|
A|1-6-3-6-|-1~~--|
D|1-6-3-6-|-1~~--|


Solo (Guitar 2)
E|-------------------------------------------------------------------------------|
B|-11-11---------11-11-13-11-11-----11-------------------------------------------|
G|-------------12---------------------12-----10-12-10-10----10~ 10-12-10-10------|
D|----------------------------------------------------13------------------13-10--|
A|-------------------------------------------------------------------------------|
D|-------------------------------------------------------------------------------|

(Verse)Pausa
E|------------------|
B|------------------|
G|------------------|
D|13---------------|
A|13---------------|
D|13---------------|

Chorus
E|--------|
B|--------|
G|--------|
D|3-8-5-8-|
A|3-8-5-8-|
D|3-8-5-8-|  4x

End On
E|----------------|
B|----------------|
G|----------------|
D|3---------------|
A|3---------------|
D|3---------------|

Video Clip de Josey


ACORDES PARA GUITARRA

PIANO UKELELE


TOP 20: Las más tocadas de Hey Monday


Toca una Canción al Azar de Hey Monday

Acordes

Cerrar

04.00

x

159