Colo Colo - campeón hay uno sólo (Acordes)

Himnos de futbol

Subida por Toni

Compartir


Cambiar Cifrado
Americano Latino

Cambiar Tonalidad
-1 +1
Imprimir FAQ
+A
-A

Texto

Desplazamiento

Transportador

Color de Fondo

Archivos

-A
+A
campeón..campeón..campeón hay uno solo...

E/-3-3----3-2----2-0-2-3-2-0--------
B/---------------------------3------
G/----------------------------------
D/----------------------------------
A/----------------------------------
E/----------------------------------



se llama colo colo el eterno campeón...

E/---0-2-3-2-0---------0-2-3-2-0----
B/-3-----------3-----3--------------
G/----------------------------------
D/----------------------------------
A/----------------------------------
E/----------------------------------


Video Clip de Colo Colo - campeón hay uno sólo


ACORDES PARA GUITARRA

PIANO UKELELE
E
G
D
A


TOP 20: Las más tocadas de Himnos de futbol


Acordes

Cerrar
E
G
D
A

21.55

x

54