Hector Bracamonte - Canción del Diego

Himnos de futbol

Acordes

Subida por hidalgo6269


Más Versiones
Ver. 2

Cambiar Cifrado
Americano Latino

Cambiar Tonalidad
-1 +1

Partir Pantalla Imprimir FAQ

+A
-A
e||-8-7---8---|-8-7----------|-8-7----------|-18--18--18-|
B||-7--10-----|-7--10-8-10-8-|-7--10-8-10-8-|---16--16---|
G||-7----8----|-7------------|-7------------|------------|
D||-----------|--------------|--------------|------------|
A||-----------|--------------|--------------|------------|
E||-----------|--------------|--------------|------------|


SI#m5 SIm
la mano de dios rozo con un dedo tu pie izquierdo

LA#m LAm
barrilete cosmico rozando el verde suelo

SI#m5 SIm
sos venganza de los pobres y bandera de los tristes

LA#m LAm
tu tortuga no se escapa fuiste sol en dias grises


SOL SIm
una tarde te colgaste en el cielo de los nuestros
LAm
las filas del invasor con su reina se rindieron
SOL SIm
fuiste como el comandante profeta en otra tierra
LAm
libre el sur el norte hoy te prepara una vendetta


SOL RE
y hoy estas aqui pibe de oro aun existes
SOL RE
tu tatuaje esta no se borra lo que hiciste
SOL RE
tu barco partio y mil guerras vos venciste
DO RE
sos el capitan de mis dias mas felices


SI#m5 SIm LA#m LAm

SI#m5 SIm
tu mala armadura no te protegio de flechas blancas
LA#m LAm
hoy te cobran el pecado los que mandan a los tranzas
SI#m5 SIm
y para tapar tu dolor endureciste tu coraza
LA#m LAm
pero el flash engañador te atraviesa como lanza

SOL SIm
todo debe terminar o eso cree el que te envidia
LAm
pero como el ave fenix la pelusa es infinita
SOL SIm
solo se que para verte tengo que cerrar mis ojos
LAm
para mi generacion sos el heroe mas grandioso


SOL RE
y hoy estas aqui pibe de oro aun existes
SOL RE
tu tatuaje esta no se borra lo que hiciste
SOL RE
tu barco partio y mil guerras vos venciste
DO RE
sos el capitan de mis dias mas felices


SI#m5 SIm LA#m LAm
maradoo maradoo maradoo
de mis dias mas felices



SI#m5 SIm LA#m LAm
|--7--| |--7--| |--6--| |--5--|
|--8--| |--7--| |--6--| |--5--|
|--7--| |--7--| |--6--| |--5--|
|--9--| |--9--| |--8--| |--7--|
|--x--| |--x--| |--x--| |--x--|
|--x--| |--x--| |--x--| |--x--|



Es la primer vez que subo una cancion, espero que les sirva
Cualquier correccion o sugerencia la pueden hacer a [email protected]


NUEVO FORO DE MÚSICA

¿Tienes alguna duda, consulta, pregunta, consejo o algo para compartir sobre esta canción?

¡Puedes abrir un hilo en el FORO para que la comunidad te ayude! Hacer una pregunta

ACORDES PARA GUITARRA

PIANO UKELELE
Cm
Bm
A#m
Am
G
D
C


Las más tocadas de Himnos de futbol

Cm
Bm
A#m
Am
G
D
C