Himno del Real Valladolid (Acordes)

Himnos de futbol

Subida por ernylp2011

Compartir


Cambiar Cifrado
Americano Latino

Cambiar Tonalidad
-1 +1
Imprimir FAQ
+A
-A

Texto

Desplazamiento

Transportador

Color de Fondo

Archivos

-A
+A
Primer riff

e---------------------12-10-9--7-9-10--10-10-10-10------------
B-------14-----12-10------------------------------------------
G-12-12-------------------------------------------------------
D-------------------------------------------------------------
A-------------------------------------------------------------
E-------------------------------------------------------------


e---------------------12-10-9--7-9-10--10-10-10-10------------
B-------14-----12-10------------------------------------------
G-12-12-------------------------------------------------------
D-------------------------------------------------------------
A-------------------------------------------------------------
E-------------------------------------------------------------



Estribillo

e--12-12-9--9-9---------14-14-14-12-10-9-7-5------------------
B---------------10--10----------------------------------------
G-------------------------------------------------------------
D-------------------------------------------------------------
A-------------------------------------------------------------
E-------------------------------------------------------------


e--12-12-9--9-9---------14-14-14-12-10-9-7-5------------------
B---------------10--10----------------------------------------
G-------------------------------------------------------------
D-------------------------------------------------------------
A-------------------------------------------------------------
E-------------------------------------------------------------



Segundo riff

e-----12-12-12-14-12-10-9-10-10-10-10-------------------------
B-10----------------------------------------------------------
G-------------------------------------------------------------
D-------------------------------------------------------------
A-------------------------------------------------------------
E-------------------------------------------------------------



e----10-10-10-12-10-9-7-5-7-9-7-5-----------------------------
B-10----------------------------------------------------------
G-------------------------------------------------------------
D-------------------------------------------------------------
A-------------------------------------------------------------
E-------------------------------------------------------------

Estrofa


e-------12-12-12-14-14-12-11-12-12---12-12-17-17-17-17-17-19--
B-12-12-------------------------------------------------------
G-------------------------------------------------------------
D-------------------------------------------------------------
A-------------------------------------------------------------
E-------------------------------------------------------------


e-21-19--16-17-19-19-19-19-19-17-16-14-12-12------------------
B-------------------------------------------------------------
G-------------------------------------------------------------
D-------------------------------------------------------------
A-------------------------------------------------------------
E-------------------------------------------------------------


e-12-17-17-19-21-19---12-17-17-19-21-19-----------------------
B-------------------------------------------------------------
G-------------------------------------------------------------
D-------------------------------------------------------------
A-------------------------------------------------------------
E-------------------------------------------------------------


e-12-17-17-19-21-19-19-16-17-19-19-17-16-14-------------------
B-------------------------------------------------------------
G-------------------------------------------------------------
D-------------------------------------------------------------
A-------------------------------------------------------------
E-------------------------------------------------------------




Orden:

1er riff
Estribillo
2º riff
Estrofa
Estrofa
Estribillo
1er riff
2º riff
Estrofa
Estrofa
Estribillo
1er riff
Estribillo
Estribillo


Video Clip de Himno del Real Valladolid


ACORDES PARA GUITARRA

PIANO UKELELE


TOP 20: Las más tocadas de Himnos de futbol


Acordes

Cerrar

03.33

x

62