Himno Santos Laguna (Acordes)

Himnos de futbol

Subida por Pancha

Compartir


Cambiar Cifrado
Americano Latino

Cambiar Tonalidad
-1 +1
Imprimir FAQ
+A
-A

Texto

Desplazamiento

Transportador

Color de Fondo

Archivos

-A
+A
e-0-0-0------------0----1--1--0----0-----1-0--------------
B--------3--1--3----------------3------3-----3---3--1-----
G---------------------------------------------------------
D---------------------------------------------------------
A---------------------------------------------------------
E---------------------------------------------------------

e------------------0-------------------------------------
B---1---1--1--1------3--3--0---3-------------------------
G-----2---2--2--2-----------------------------------------
D---------------------------------------------------------
A---------------------------------------------------------
E---------------------------------------------------------

e-0-0-0------------0----1--1--0----0-----1-0--------------
B--------3--1--3----------------3------3-----3---3--1-----
G---------------------------------------------------------
D---------------------------------------------------------
A---------------------------------------------------------
E---------------------------------------------------------

e------------------0-------------------------------------
B---2---2--2--2------3--3--0---3-------------------------
G-----1---1--1--1-----------------------------------------
D---------------------------------------------------------
A---------------------------------------------------------
E---------------------------------------------------------


Video Clip de Himno Santos Laguna


ACORDES PARA GUITARRA

PIANO UKELELE


TOP 20: Las más tocadas de Himnos de futbol


Acordes

Cerrar

15.29

x

63