Himno Atlético de Madrid

Himnos de futbol

Acordes

Subida por jovex



Cambiar Cifrado
Americano Latino

Cambiar Tonalidad
-1 +1

Partir Pantalla Imprimir FAQ

+A
-A


Ver solo la LETRA
[INTRO]

E||---------------------------------------------------------|
B||---0-1-1-1-1-1----3-1-0-0-0-0-0----1-0-------0-3-1-0-----|
G||-2-------------------------------------2-2-2---------2-0-|
D||---------------------------------------------------------|
A||---------------------------------------------------------|
E||---------------------------------------------------------|

[VOZ]

E||---------------------------------------------------------|
B||---3-0------0-----------0-----0-1------------------------|
G||----------0---0-----------0-2-----2----------------------|
D||-0-------------------0-----------------------------------|
A||---------------------------------------------------------|
E||---------------------------------------------------------|


E||--------------------------------0------------------------|
B||---1---------------------3-3-3----1-0--------------------|
G||-----2-------2-------------------------------------------|
D||-0---------0---4-------0---------------------------------|
A||---------------------------------------------------------|
E||---------------------------------------------------------|


E||---------------------------------------------------------|
B||---3-0-------0-----------0-----0-3-1---------------------|
G||-----------0---1-----------1-2---------------------------|
D||-0--------------------2----------------------------------|
A||---------------------------------------------------------|
E||---------------------------------------------------------|


E||---------------------------------------------------------|
B||---0-1-1-1-1-1----3-1-0-0-0-0-0----1-0-------0-3-1-0---0-|
G||-2-------------------------------------2-2-2---------2---|
D||---------------------------------------------------------|
A||---------------------------------------------------------|
E||---------------------------------------------------------|


E||---------------------------------------------------------|
B||---0-1-1-1-1-1----3-1-0-0-0-0-0----1-0------0-3-1-0------|
G||-2-------------------------------------2--2---------2-0--|
D||---------------------------------------------------------|
A||---------------------------------------------------------|
E||---------------------------------------------------------|


E||-----------------7------------5-5-5-7-5------------------|
B||-5-7-8-----7-5-8---7-----7-8------------8-7-5------------|
G||---------------------------------------------------------|
D||---------------------------------------------------------|
A||---------------------------------------------------------|
E||---------------------------------------------------------|


E||-----------------7------------5-5-5-7-5------------------|
B||-5-7-8-----7-5-8---7-----7-8------------8-7-5------------|
G||---------------------------------------------------------|
D||---------------------------------------------------------|
A||---------------------------------------------------------|
E||---------------------------------------------------------|


E||-7-8-10----10-8-7-10-8----5-7-8-----8-7-5-8-7------------|
B||---------------------------------------------------------|
G||---------------------------------------------------------|
D||---------------------------------------------------------|
A||---------------------------------------------------------|
E||---------------------------------------------------------|

E||----------------7-----------7-7-8-7-5--------------------|
B||-5-7-8----7-5-8---7-----7-8-----------8-7-5--------------|
G||---------------------------------------------------------|
D||---------------------------------------------------------|
A||---------------------------------------------------------|
E||---------------------------------------------------------|

SE REPITE [VOZ]


AHORA [VOZ] CON UN CAMBIO AL FINAL

E||---------------------------------------------------------|
B||---3-0------0-----------0-----0-1------------------------|
G||----------0---0-----------0-2-----2----------------------|
D||-0-------------------0-----------------------------------|
A||---------------------------------------------------------|
E||---------------------------------------------------------|


E||--------------------------------0------------------------|
B||---1---------------------3-3-3----1-0--------------------|
G||-----2-------2-------------------------------------------|
D||-0---------0---4-------0---------------------------------|
A||---------------------------------------------------------|
E||---------------------------------------------------------|


E||---------------------------------------------------------|
B||---3-0-------0-----------0-----0-3-1---------------------|
G||-----------0---1-----------1-2---------------------------|
D||-0--------------------2----------------------------------|
A||---------------------------------------------------------|
E||---------------------------------------------------------|


E||---------------------------------------------------------|
B||---0-1-1-1-1-1----3-1-0-0-0-0-0----1-0-------0-3-1-0---0-|
G||-2-------------------------------------2-2-2---------2---|
D||---------------------------------------------------------|
A||---------------------------------------------------------|
E||---------------------------------------------------------|


E||-------------------------------------------------0-2-3---|
B||---0-1-1-1-1-1----3-1-0-0-0-0-0----1-0-------3-3---------|
G||-2-------------------------------------2-2-2-------------|
D||---------------------------------------------------------|
A||---------------------------------------------------------|
E||---------------------------------------------------------|


G G G G
E||------3----3----3--------3-------------------------------|
B||---------------------------------------------------------|
G||---------------------------------------------------------|
D||---------------------------------------------------------|
A||------2----2----2--------2-------------------------------|
E||------3----3----3--------3-------------------------------|

NUEVO FORO DE MÚSICA

¿Tienes alguna duda, consulta, pregunta, consejo o algo para compartir sobre esta canción?

¡Puedes abrir un hilo en el FORO para que la comunidad te ayude! Hacer una pregunta

ACORDES PARA GUITARRA

PIANO UKELELE
G


Las más tocadas de Himnos de futbol

G